Relação dos exercícios postados no fórum

Autor Mensagem
Barbara Jolie
Veterano
# nov/03
· votar


Freiheit
Bom, não ajudou.
Não sei o q eh sweep. =/

Tipow...isso ali eh como a palheta tem q ficar, o modo de tocar?? O q eh?

Freiheit
Veterano
# nov/03
· votar


Modo de tocar...
Sweep... eu so teria como dizer pra ti pessoalmente mostrando, pq nao sei explicar por palavras como eh...
Eu nem consigo fazer ainda, eh meio chato e complicado de começar a aprender, ai eu nem tento
hehehe

hrspedro
Veterano
# nov/03
· votar


Barbara Jolie sweep eh como se fosse vc varrer as cordas da guita com a palheta sabe, tipo, vc faz uma escala descendo com a palheta de uma vez soh, e os dedos da esquerda apertando as cordas... num sei se deu pra entender, mas eh basicamente issu

yvo
Veterano
# nov/03
· votar


woah

qm vai ser o doido q vai fazer todos esses exercicios??


esse foi um dos topicos mais uteis do forum, perdendo pra poucos

zealot
Veterano
# nov/03
· votar


mt util pra mim !!!
falouuuuuuuuuuu

Energy
Veterano
# nov/03
· votar


Overdoser
corrige ae
-----------------------------------------7-7-7-7-12-
----------------------------------8-8-8-8-----------
---------------------------9-9-9-9------------------
--------------------9-9-9-9-------------------------
-7-7-7-7-10-10-10-10--------------------------------
----------------------------------------------------

foi mal galera tinha enviado errado

Overdoser
Veterano
# nov/03
· votar


-----------------------------------------7-7-7-7-12- 

----------------------------------8-8-8-8-----------
---------------------------9-9-9-9------------------
--------------------9-9-9-9-------------------------
-7-7-7-7-10-10-10-10--------------------------------
----------------------------------------------------



cliquem no botao de TAB pra ficar alinhado

Energy
Veterano
# nov/03
· votar


Overdoser
esse exercicio estava errado corrige no inicio do topico

Energy
Veterano
# nov/03
· votar


Overdoser
corrige no inicio do topico, estava digitado errado.

JediKnight
Veterano
# nov/03
· votar


Overdoser
muito atitude seu post , acho q a ideia metal_defender de apagar os papos e deixar só os exercícios é válida

Overdoser
Veterano
# nov/03
· votar


JediKnight
é mesmo

ou entao o Sam copiar tudo aqui num arquivo so e postar la a area de exercicios do cifra

tipo, "exercicios da galera do forum" ahuahaua

Imnomine
Veterano
# nov/03
· votar


Quanto ao sweep, eu não tinha visto isso aqui.
Sweep é um modo de se palhetar, tipo palhetada alternada e tal. Mto usado em arpeggios, quem quiser conferir
http://www.angelfire.com/vamp/murad/sweep_picking.WMV
o link não é meu e o video tem quase 10mb

Energy
Veterano
# nov/03
· votar


Overdoser
corrige os exercicios no inicio do topico

Barbara Jolie
Veterano
# nov/03
· votar


Imnomine
O link não tá funcionando. =/

DTGNR
Veterano
# nov/03
· votar


sweep eh assim. na corda Misao da uma palhetada joga tres notas da esquerda pra direita, na corda de baixo, da direita pra esquerda com palhetada alternada soh acompanhando as notas. Qdo for descendo, comece com a palhetada pra baixo e qdo for subir que eh um pouquinho mais chato comece com a palhetada pra cima!

king_arthur
Veterano
# nov/03
· votar


clap clap clap

overdoser eh o cara...

Homem Cueca
Veterano
# nov/03
· votar


Sweep(economia de movimentos da palhetada)

e-1512------121713-------131915------152017------1719etc...
B-----13--13------15--15-------17--17------18--18---------
G-------12----------14-----------16----------17----------
D--------------------------------------------------
A--------------------------------------------------
E--------------------------------------------------


Joe Satriani
Veterano
# nov/03
· votar


Muito bom overdoser, alguém poderia me dizer aonde encontro alguma coisa sobre esses modos-> Jônio, Dório, Frígio, Lídio, Mixolídio, Eólio, Lócrio
Valeu.

Overdoser
Veterano
# nov/03
· votar


Joe Satriani
aqui no cifra clube tem, na parte de "curso on line"

aquele curso de blues

Joe Satriani
Veterano
# nov/03
· votar


Ummm legal, vou dar um olhada, tava vendo aquela video aulo do guitarrista do angra kiko... putz cara ele tiro uns solos lá emcima da escla mixolídio... meu deus... muito lindo o solo

SODAPOP
Veterano
# nov/03
· votar


Joe Satriani
Como é a escala mixolídio???
Ah gente, e como que se faz um sweep picking direito? tipo, eu varro com a palheta, mas eu não consigo parar as cordas que eu já tinha tocado antes, tão me entendendo? Tipo quando vc toca um acorde, todas as cordas que tu tocou soam, e no meu sweep fica assim, é correto?

caíto
Veterano
# nov/03
· votar


Overdoser
Deu uma de Maggie agora.
Porra, tava precisando. Parabéns, fio.

Barbara Jolie
Veterano
# nov/03
· votar


Imnomine
Ae cara, valeu.

O cara da guitarra é dah hora.
Puts....q ligeiresa.
Só daqui mil anos acho q vou conseguir isso.


Valeu, agora sei certinho o q é sweep
=]

Sistema Bruto
Veterano
# nov/03
· votar


/\
/ \
/ \
/ \
/ \ ESSE EXERCICIO E OTIMO

nonoya
Veterano
# dez/03
· votar


esse não é bom pra treinar abertura dos dedos esse é ótimo !

zealot
Veterano
# dez/03
· votar


SODAPOP
nao eh pra tocar igual acorde... no SWEEP vc tem q tirar o dedo da nota q ja tocou... sacou ?
ao mesmo tempo em q esta varrendo com a palheta vc deve ir retirando os dedos... isso q eh legal...
igual ao Malmsteen...

Dps
Veterano
# dez/03
· votar


Ola,

Estou começando a estudar guitarra e goataria de receber ajuda sobre " como ler tablatura (iniciante ) ".
Grato!!!

Daniel

Tripa Seca
Veterano
# dez/03 · Editado por: Tripa Seca
· votar


Bom estes aqui são uns exercicios que eu uso para treinar sweep...

devagar no começo, mas qdo pega o jeito é facil...


|--------12-17h12----------12-17h12----|
|-----13----------13----13----------13-|
|--14----------------14----------------|
|--------------------------------------|
|--------------------------------------|
|--------------------------------------|



--------10-14h10----------10-14h10----|
-----10----------10----10----------10-|
--11----------------11----------------|
--------------------------------------|
--------------------------------------|
--------------------------------------|



--------10-15h10----------10-15h10----|------8-12h8-------8-12h8---|
-----12----------12----12----------12-|----8--------8---8--------8-|
--12----------------12----------------|--9------------9------------|
--------------------------------------|----------------------------|
--------------------------------------|----------------------------|
--------------------------------------|----------------------------|



--------8-13h8----------8-13h8----|------7-11h7-------7-11h7---|
-----10--------10----10--------10-|----7--------7---7--------7-|
--10--------------10--------------|--8------------8------------|
----------------------------------|----------------------------|
----------------------------------|----------------------------|
----------------------------------|----------------------------|



------7-12h7-------7-10h7---|------5-8h5-------4-7h4---|
----9--------9---9--------9-|----5-------5---5-------5-|
--9------------7------------|--5-----------4-----------|
----------------------------|--------------------------|
----------------------------|--------------------------|
----------------------------|--------------------------|



--5----------------|
----5--------------|
------5------------|
--------7----------|
----------7--------|
------------8-5----|


Tripa Seca
Veterano
# dez/03
· votar


tem mais



--15h-12------15h-12------15h-12------15h-12------|
----------14----------14----------14----------14--|
--------------------------------------------------|
--------------------------------------------------|
--------------------------------------------------|
--------------------------------------------------|



--14h-10------14h-10------14h-10------14h-10------|
----------12----------12----------12----------12--|
--------------------------------------------------|
--------------------------------------------------|
--------------------------------------------------|
--------------------------------------------------|



--15h-12------15h-12------15h-12------15h-12------|
----------14----------14----------14----------14--|
--------------------------------------------------|
--------------------------------------------------|
--------------------------------------------------|
--------------------------------------------------|



--14h-10------14h-10------14h-10------14h-10------|
----------12----------12----------12----------12--|
--------------------------------------------------|
--------------------------------------------------|
--------------------------------------------------|
--------------------------------------------------|



--15h-12--------------12--15h-12--------------12--|
----------14------14--------------14------14------|
--------------15----------------------15----------|
--------------------------------------------------|
--------------------------------------------------|
--------------------------------------------------|



--14h-10--------------10--14h-10--------------10--|
----------12------12--------------12------12------|
--------------11----------------------11----------|
--------------------------------------------------|
--------------------------------------------------|
--------------------------------------------------|




--15h-12--------------12--15h-12--------------12--|
----------14------14--------------14------14------|
--------------15----------------------15----------|
--------------------------------------------------|
--------------------------------------------------|
--------------------------------------------------|



--14h-10--------------10--14h-10--------------10--|
----------12------12--------------12------12------|
--------------11----------------------11----------|
--------------------------------------------------|
--------------------------------------------------|
--------------------------------------------------|



--10h-7-----------7--10h-7-----------7--|
---------8-----8------------8-----8-----|
------------7------------------7--------|
----------------------------------------|
----------------------------------------|
----------------------------------------|



--14h-10--------------10--14h-10--------------10--|
----------12------12--------------12------12------|
--------------11----------------------11----------|
--------------------------------------------------|
--------------------------------------------------|
--------------------------------------------------|



--10h-7-----------7--10h-7-----------7--|
---------8-----8------------8-----8-----|
------------7------------------7--------|
----------------------------------------|
----------------------------------------|
----------------------------------------|



--8h-5-----------5--8h-5-----------5--|
--------6-----6-----------6-----6-----|
-----------5-----------------5--------|
--------------------------------------|
--------------------------------------|
--------------------------------------|




--12t-8--5--12t-8--5--12t-8--5--12t-8--5--|
------------------------------------------|
------------------------------------------|
------------------------------------------|
------------------------------------------|
------------------------------------------|



--13t-8--5--13t-8--5--13t-8--5--13t-8--5--|
------------------------------------------|
------------------------------------------|
------------------------------------------|
------------------------------------------|
------------------------------------------|



--12t-8--5--12t-8--5--12t-8--5--12t-8--5--|
------------------------------------------|
------------------------------------------|
------------------------------------------|
------------------------------------------|
------------------------------------------|



--10t-8--5--10t-8--5--10t-8--5--10t-8--5--|
------------------------------------------|
------------------------------------------|
------------------------------------------|
------------------------------------------|
------------------------------------------|



--6h-3-----------3--6h-3-----------3--|
--------5-----5-----------5-----5-----|
-----------6-----------------6--------|
--------------------------------------|
--------------------------------------|
--------------------------------------|



--8h-5-----------5--8h-5-----------5--|
--------6-----6-----------6-----6-----|
-----------5-----------------5--------|
--------------------------------------|
--------------------------------------|
--------------------------------------|




--10h-7-----------7--10h-7-----------7--|
---------8-----8------------8-----8-----|
------------7------------------7--------|
----------------------------------------|
----------------------------------------|
----------------------------------------|



--12h-8-------------8--12h-8-------------8--|
---------10-----10------------10-----10-----|
-------------9--------------------9---------|
--------------------------------------------|
--------------------------------------------|
--------------------------------------------|



--14h-10--------------10--14h-10--------------10--|
----------12------12--------------12------12------|
--------------11----------------------11----------|
--------------------------------------------------|
--------------------------------------------------|
--------------------------------------------------|



--10h-7-----------7--10h-7-----------7--|
---------8-----8------------8-----8-----|
------------7------------------7--------|
----------------------------------------|
----------------------------------------|
----------------------------------------|



--14h-10--------------10--14h-10--------------10--|
----------12------12--------------12------12------|
--------------11----------------------11----------|
--------------------------------------------------|
--------------------------------------------------|
--------------------------------------------------|



--10h-7-----------7--10h-7-----------7--|
---------8-----8------------8-----8-----|
------------7------------------7--------|
----------------------------------------|
----------------------------------------|
----------------------------------------|




--14h-10--------------10--14h-10--------------10--|
----------12------12--------------12------12------|
--------------11----------------------11----------|
--------------------------------------------------|
--------------------------------------------------|
--------------------------------------------------|



--15h-12--------------12--15h-12--------------12--|
----------14------14--------------14------14------|
--------------15----------------------15----------|
--------------------------------------------------|
--------------------------------------------------|
--------------------------------------------------|



--17h-13--------------13--17h-13--------------13--|
----------15------15--------------15------15------|
--------------14----------------------14----------|
--------------------------------------------------|
--------------------------------------------------|
--------------------------------------------------|



--18h-15--------------15--18h-15--------------15--|
----------17------17--------------17------17------|
--------------18----------------------18----------|
--------------------------------------------------|
--------------------------------------------------|
--------------------------------------------------|



--20h-16--------------16--20h-16--------------16--|--22b---------------|
----------18------18--------------18------18------|--------------------|
--------------17----------------------17----------|--------------------|
--------------------------------------------------|--------------------|
--------------------------------------------------|--------------------|
--------------------------------------------------|--------------------|


Reinaldo Camargo Filho
Veterano
# dez/03
· votar


Fiz todos os exercícios, bem legais.

Só os tapping ficou nada haver, pois eu não tenho guita ainda, talvez sábado que vem eu pegue a minha primeira guita.

Fiz tudo num violão Empenado, por isso ficou estranho, mas acho que é bom treinar assim, que aí quando pegar a guita, fica mto mais facil, outra coisa, os esquemas dos sweep
é chato viu, tomara que na guitarra seja bem mais fácil.

Enviar sua resposta para este assunto
        Tablatura   
Responder tópico na versão original
 

Tópicos relacionados a Relação dos exercícios postados no fórum