Relação dos exercícios postados no fórum

Autor Mensagem
Overdoser
Veterano
# nov/03
· votar


acho que isso é tudo...

falta buscar por licks, se alguem se disponibilizar...

ninguem???

mesmo??

ok, eu vou buscar

Dieselboy
Veterano
# nov/03
· votar


po esse tópico é muito interessante, algum moderador podia coloca uma exclamação nele

metal_defender
Veterano
# nov/03
· votar


Overdoser

kra esse foi o primeiro topico util seu...q eu vi aki....
parabens...

Overdoser
Veterano
# nov/03
· votar


Dieselboy
\o/

é "o topico" (surtando)

Overdoser
Veterano
# nov/03
· votar


metal_defender
ei ei, é o terceiro

tem a traduçao do manual da zoom e um sobre criatividade


meu saldo:

total de topicos: 200 e poucos
topicos uteis: 3

FanDeGuitarra
Veterano
# nov/03
· votar


alguem viu as liçoes do mozart mello na Cover Guitarra?

metal_defender
Veterano
# nov/03
· votar


Overdoser

pow....e mesmo...tinha eskecido desses outros 2.....parabens MESMO!!

Overdoser
Veterano
# nov/03
· votar


up pra barbara

DTGNR
Veterano
# nov/03
· votar


eh bem legal esse topico agora soh faltou a aula q dei sobre escalas como usar escalas naturais, como misturar escalas em solos!

Imnomine
Veterano
# nov/03
· votar


po poderiam colocar esse tópico com exclamação

rage_rula
Veterano
# nov/03
· votar


nossa mto bom mesmo overdoser, vo cria aki um documentinho e imprimi isso td... treinar rulz...
e mais uma vez parabens pela iniciativa!

msedex
Veterano
# nov/03
· votar


po poderiam colocar esse tópico com exclamação
tem de botar..pra todo mundo vê esse topico!

the_paranoid
Veterano
# nov/03
· votar


meu professor me passou uns assim (achu q naum tm iguais ali antes, ql q coisa disculpa):



e--------------------------------------4---------------
B-------------------------4---------3----------------4-
G----------4-----------3---------2----------------3----
D-------3-----------2---------1---------------2--------
A----2-----------1------------------------1------------
E--1---------------------------------------------------



e-------------------------------------4-1-------------------
B----------------------4-1-----------3-----2----------4-1---
G------4-1-----------3-----2-------2---------3-------3---2--
D----3-----2-------2---------3---1-------------4---2------3-
A--2---------3---1-------------4-----------------1---------4
E-1------------4--------------------------------------------




esse aqui eh 1 soh:


e-----------------1-2-1-3--------------------------------1-4
B--------------1-2-------1-3--------------------------1-4--
G-----------1-2-------------1-3--------------------1-4-----
D-------1-2--------------------1-3--------------1-4--------
A----1-2--------------------------1-3--------1-4-----------
E-1-2--------------------------------1-3--1-4--------------




e-3-4------------------------------------------2-4---------
B-----3-4----------------------------------2-4-------------
G---------3-4--------------------------2-4-----------------
D-------------3-4------------------2-4---------------------
A-----------------3-4----------2-4-------------------------
E---------------------3-4--2-4-----------------------------





e-1-4----------------------------------------------------
B-----1-4------------------------------------------------
G---------1-4--------------------------------------------
D-------------1-4----------------------------------------
A-----------------1-4------------------------------------
E---------------------1-4--------------------------------


the_paranoid
Veterano
# nov/03
· votar


putz ficou as tab tudo junta...

Freiheit
Veterano
# nov/03
· votar


Ficou parecendo mais aquelas parada q mostra no equalizador qdo uma musica ta tocando e talz...

HUEuauheahue :P

Dave Murray
Veterano
# nov/03
· votar


a desenho ficou legal com as tab jmunta...ehehhehehe

Melodic Man
Veterano
# nov/03
· votar


ótimo tópico, PARABÉNS!!!

Inclusive a minha escala monotônica aparece na primeira parte. hehehe

Chibé
Veterano
# nov/03
· votar


GRANNNNNNNDDDDDDEEEEEE Overrrr revolucionando os exercícios!! :)
parabéns.. deve ter dado um bucado de trabalho...

Overdoser
Veterano
# nov/03
· votar


ALGUNS LICKS:

Overdoser
Veterano
# nov/03 · Editado por: Overdoser
· votar


uns que o slash toca:

E:-12------------12-------------
B:----15-p12--------15-p12-h15--
G:-----------14b----------------
D:------------------------------

E:-12------------12-------------
B:----15-p12--------15-p12------
G:-----------14b-----------14b--
D:------------------------------

e----15p12----15p12----15p12----------------------------
B-12-------12-------12---------------------------------
G------------------------------------------------------
D------------------------------------------------------
A------------------------------------------------------
E------------------------------------------------------


Overdoser
Veterano
# nov/03
· votar


blues:

e----5--8h5--8/10-8-------8-10-10b11--8------------
B-------------------5-------------------10-8---------
G--------------------------------------------9----------
D------------------------------------------------------
A------------------------------------------------------
E------------------------------------------------------


ah tem outro tb
de preferencia use distorçao leve
e------------------------------------------------------
B------------------------------------------------------
G----------------7--5------------------------------------
D-------------5--7--5-------------------------------------
A-------5h6h7-----------------------------------------------
E---5-8--------------------------------------------------

Overdoser
Veterano
# nov/03
· votar



blues:

e----5--8h5--8/10-8-------8-10-10b11--8------------
B-------------------5-------------------10-8---------
G--------------------------------------------9----------
D------------------------------------------------------
A------------------------------------------------------
E------------------------------------------------------


ah tem outro tb
de preferencia use distorçao leve
e------------------------------------------------------
B------------------------------------------------------
G----------------7--5------------------------------------
D-------------5--7--5-------------------------------------
A-------5h6h7--------------------------------------------
E---5-8--------------------------------------------------



Overdoser
Veterano
# nov/03
· votar


e-12-17-15-12-17-15-12-17-15-12-15b17------------------
B------------------------------------------------------
G------------------------------------------------------
D------------------------------------------------------
A------------------------------------------------------
E------------------------------------------------------

Overdoser
Veterano
# nov/03
· votar



hehehe tranquilo
mas fica legal mesmo
gosto tb de licks com ligado assim:


e------------------------------------------------------
B--10h11h13-10h11h13-10h11h13-11h13h15-11h13h15-13h15h17
G-------------------------------------------------------
D------------------------------------------------------
A------------------------------------------------------
E------------------------------------------------------




Overdoser
Veterano
# nov/03
· votar


e------------------------8-10b---------------------------- 

B------------------8-10-----------------------------------
G----------5--7/9-----------------------------------------
D----5--7-------------------------------------------------
A---------------------------------------------------------
E---------------------------------------------------------
</pre>
com distorcao
fica legalzinho


Overdoser
Veterano
# nov/03
· votar



Achei esse daqui do Van Halen :


e---------------7-8-10------------7-8-10-------
B-------7-8-10-----------7-8-10-------------
G---------------------------------------------------------

Continuacao...
e--------------8-10-12-----------8 10 12-------------
B-----8-10-12----------8 10 12-----------------------
G---------------------------------------------------

Continuacao...
e------------10 12 14-------------10 12 14--------------
B---10 12 14-----------10 12 14-------------------
G---------------------------------------------------

Continuacao...
e---------------12 13 15 13 12---------------------------
B-----12 13 15----------------15-------------------
G---------------------------------------------------


Tente fazer rapido , saira um som legal...esperimente uma distorcao....


Overdoser
Veterano
# nov/03
· votar



o chamado quialter (nao sei escrever hehe)
descer a escala voltando sempre uma ou varias notas atras e retomar a descida, tipo:

e-17-15-13-15-13-12-13-12----12-------------------------
B-------------------------15----15-13-15-13-12-13-12----
G---------------------------------------------------14~~
D-------------------------------------------------------
A-------------------------------------------------------
E-------------------------------------------------------




Overdoser
Veterano
# nov/03
· votar


e------------------------------------------------------

B------------------------------------------------------
G-------7--9--x--9b---9--7-----------------------------
D-------7--9--x-------------9~-------------------------
A------------------------------------------------------
E------------------------------------------------------



Overdoser
Veterano
# nov/03 · Editado por: Overdoser
· votar



Licks pentatônicos do Paul Gilbert. repita isso em ciclo.

e----------------------
B----------------------
G--------------5-------
D----7-5---5-7---------
A--------7-------------
E----------------------



Arpeggio de C maior. na corda e, uma hora vc desce, bate na 5ª (nota G - 15ª casa) e volta...
depois vc desce, bate na 5# (G# - 16ª casa) e volta. REPITA EM CICLO TB...
fica legal. vai lembrar um pouco o tema de PICa-PAU.


e--15p-12----------12--16p--12----------12-------------
B---------13----13-------------13----13----------------
G------------12-------------------12-------------------
D------------------------------------------------------
A------------------------------------------------------
E------------------------------------------------------


>

Overdoser
Veterano
# nov/03 · Editado por: Overdoser
· votar



Entao cara eu gosto de tocar um riff da Diatonica...
o exemplo ta em C mas vcs podem transportar para o tom que quiserem...


e------------------------------------------------------
B------------------------------------------------------
G------------------9-10-12---------------------------------
D----------9-10-12-----------------------------------------
A----10-12-----------------------------------------------
E------------------------------------------------------



Esse e um link que gosto de fazer
Bem rapido( tudo com Hammer-on) apos isso faca um Bend (
OBs: tem que obedecer a escala diatonica.)

e um slide e mude para outra regiao do instrumento e improvise...
se nao souber ,nao se preocupe , isso vem com mto esforco , dedicacao e de certo modo, com tempo.
É como meu prof falou , ""Vc tem que ja enxergar tudo na Guitarra"" .


Enviar sua resposta para este assunto
        Tablatura   
Responder tópico na versão original
 

Tópicos relacionados a Relação dos exercícios postados no fórum