Relação dos exercícios postados no fórum

Autor Mensagem
Overdoser
Veterano
# nov/03
· votar


estraguei o topico... nao consigo editar

Overdoser
Veterano
# nov/03
· votar



faca no tom q vc quiser
aqui ta em G

e---------7h10p7--------------------------------------------
B----10b-----------10br----------------------------------
G-------------------------------------------------------
D------------------------------------------------------
A------------------------------------------------------
E------------------------------------------------------



esse eh legalzinho...


Overdoser
Veterano
# nov/03
· votar



esse é muito legal , uso pra caralho, ta em A
e---------5------8^^^^---5-------------------------------
B-------5---8/10-------5---8p5---------------------------
G------------------------------8p7p5----7---5^^^^--------
D-------------------------------------7---7--------------
A--------------------------------------------------------
E--------------------------------------------------------




Overdoser
Veterano
# nov/03
· votar


e|-12-----------|

B|----15-12-----|
G|----------14--|




Overdoser
Veterano
# nov/03
· votar



tem um lick de blues de rock...bem versatil...
é mais ou menos assim...


e----------5-------------- deu pra entender??
b---------5--8->-10------- onde b = bend
g----7 b------------------ e
d------------------------- > é pra escorregar
a-------------------------
E-------------------------





Freiheit
Veterano
# nov/03 · Editado por: Freiheit
· votar


Pra sweep isso aqui... Depois q você conseguir executar vai perceber q se trata da musica do pica-pau :)

E||--------------------12-15--12----|--------------------12-15--12---- |
B||-----------------13--------------|-----------------13-------------- |
G||--------------12-----------------|--------------12----------------- |
D||-----------14--------------------|-----------14-------------------- |
A||--------15-----------------------|--------15----------------------- |
E||--8/-12--------------------------|--8/-12-------------------------- |



--15--12-13~-15-13~-12----------------|--------------------12-15--12-- --|
-------------------------15--12~------|-----------------13------------ --|
--------------------------------------|--------------12--------------- --|
--------------------------------------|-----------14------------------ --|
--------------------------------------|--------15--------------------- --|
--------------------------------------|--8/-12------------------------ --|



--------------------12-15--12----|--15--12-13~-15-13~-12-------15~---- --|
-----------------13--------------|-------------------------13--------- --|
--------------12-----------------|------------------------------------ --|
-----------14--------------------|------------------------------------ --|
--------15-----------------------|------------------------------------ --|
--8/-12--------------------------|------------------------------------ --|



--15--16--17--16--17----13-----|--13--14--15--14--15----12-----|
-------------------------------|-------------------------------|
-------------------------------|-------------------------------|
-------------------------------|-------------------------------|
-------------------------------|-------------------------------|
-------------------------------|-------------------------------|



--13--15--13--12---------15---|--------------12-15-12/10-------------- --------|
------------------13----------|-----------13-------------12----------- --------|
----------------------12------|--------12-------------------12-------- 4~------|
------------------------------|-----14-------------------------12-9/5- --------|
------------------------------|--15----------------------------------- --------|
------------------------------|--------------------------------------- --------|



--------------------12-15--12----|--------------------12-15--12----|
-----------------13--------------|-----------------13--------------|
--------------12-----------------|--------------12-----------------|
-----------14--------------------|-----------14--------------------|
--------15-----------------------|--------15-----------------------|
--8/-12--------------------------|--8/-12--------------------------|


--15--15-17---17-17---19---19----|------20~-----------||
---------------------------------|------20~-----------||
---------------------------------|------17~-----------||
---------------------------------|------17~-----------||
---------------------------------|--------------------||
---------------------------------|--------------------||

Overdoser
Veterano
# nov/03
· votar


bases de blues: 


A--2----4----2----4----2----4----2----4-
E--0----0----0----0----0----0----0----0




Overdoser
Veterano
# nov/03
· votar


e |                          12                  | 

B | 12 15 |
G |14b16rb14 12 14b16 14b16rb14 12 |
D | 14 14 14 14|
A | |
E | |



Overdoser
Veterano
# nov/03 · Editado por: Overdoser
· votar


Freiheit
arrumando...



Pra sweep isso aqui...
Depois q você conseguir executar
vai perceber q se trata da musica do pica-pau :)

E||--------------------12-15--12----|--------------------12-15--12---- |
B||-----------------13--------------|-----------------13-------------- |
G||--------------12-----------------|--------------12----------------- |
D||-----------14--------------------|-----------14-------------------- |
A||--------15-----------------------|--------15----------------------- |
E||--8/-12--------------------------|--8/-12-------------------------- |



--15--12-13~-15-13~-12----------------|--------------------12-15--12-- --|
-------------------------15--12~------|-----------------13------------ --|
--------------------------------------|--------------12--------------- --|
--------------------------------------|-----------14------------------ --|
--------------------------------------|--------15--------------------- --|
--------------------------------------|--8/-12------------------------ --|


--------------------12-15--12----|--15--12-13~-15-13~-12-------15~---- --|
-----------------13--------------|-------------------------13--------- --|
--------------12-----------------|------------------------------------ --|
-----------14--------------------|------------------------------------ --|
--------15-----------------------|------------------------------------ --|
--8/-12--------------------------|------------------------------------ --|


--15--16--17--16--17----13-----|--13--14--15--14--15----12-----|
-------------------------------|-------------------------------|
-------------------------------|-------------------------------|
-------------------------------|-------------------------------|
-------------------------------|-------------------------------|
-------------------------------|-------------------------------|


--13--15--13--12---------15---|--------------12-15-12/10-------------- --------|
------------------13----------|-----------13-------------12----------- --------|
----------------------12------|--------12-------------------12-------- 4~------|
------------------------------|-----14-------------------------12-9/5- --------|
------------------------------|--15----------------------------------- --------|
------------------------------|--------------------------------------- --------|


--------------------12-15--12----|--------------------12-15--12----|
-----------------13--------------|-----------------13--------------|
--------------12-----------------|--------------12-----------------|
-----------14--------------------|-----------14--------------------|
--------15-----------------------|--------15-----------------------|
--8/-12--------------------------|--8/-12--------------------------|



--15--15-17---17-17---19---19----|------20~-----------||
---------------------------------|------20~-----------||
---------------------------------|------17~-----------||
---------------------------------|------17~-----------||
---------------------------------|--------------------||
---------------------------------|--------------------||


Freiheit
Veterano
# nov/03 · Editado por: Freiheit
· votar


ja ajeitaram pra mim (pode apagar essa postagem aqui)

Overdoser
Veterano
# nov/03
· votar


B |------15---------------------------15--------------|

G |15-17----17-15----17b20p15---15-17----17-15--------|
D |---------------17---------------------------17--15-|



É simples, mas melhor que nada... Depois eu coloco o outro lick...


Overdoser
Veterano
# nov/03
· votar



Mais um em Em:


e |3 0 |
B | 3 0 |
G | 2b3rb2 0h2h0 |
D | 2 0 |
A | 2 |
E | 0 |




Agora um sweep tosco de 2 cordas em Em:

e | 15 19 15 17 15 |
B | 17 17 |
G | |
D | |
A | |
E | |


tem uns hammer e pull-off quando cai na mizinha,
lembrando que nesse lick e so duas palhetadas,
uma na si e outra na mizinha, o resto e hammer.


Esse outro e em La7:

e | 4/5 5 5 5 5 5 5 5 5 |
B | 4/5 5 5 5 5 5 5 5 5 8 5 |
G | 7b9 7b9 7 5 5 5/6 6 6 6|
D | 7 6/7 7 7 7|
A | |
E | |


Esse lick e em mixolidio mas tem uma pitada de pentatonica.
E muito usado em blues mas o tempo ai ta encurtado,
depende de como for a musica.




Overdoser
Veterano
# nov/03
· votar



ae tem este q e mto bom:(em tons menores, aki esta ehm Em)

e 12-14-15---15-14-12-14-15-15-14-12-14-15-15-14-12-14-15----
b ---------12--------------13-------------14-------------15-12



Overdoser
Veterano
# nov/03 · Editado por: Overdoser
· votar


<pre>
toco muito blues, uso uns licks maneirinhos, por exemplo,
quando pego uma base em la maior, muitas vezes uso esse no
começo do solo:

e ------------------------------10-------------------------
b--10b- -8---10--------10b~~~~~~---10b----8-------10-------
g------------ --------------------------------9-----------
d------------------- -------------------------------------
a------------------------------ --------------------------
e----------------------------------------- --------------


</pre>

Overdoser
Veterano
# nov/03
· votar



em Em como sempre num blues bem choroso...



e | |
B | 15 deixe soar |
G | 14 14b 16 14p 12 14 14 14p12 |
D | | 14 12 12 14~~~~|
A | | 14 |
E | | |
V bend bem forte nesse la




Overdoser
Veterano
# nov/03
· votar




e|12 15 14 12 15 14 12 11 11
b| 15 15 13 13





Esse daqui eu mesmo inventei eh mto sux


Overdoser
Veterano
# nov/03 · Editado por: Overdoser
· votar



Vai ae uma coisa muito loka que eu tirei da
The time of the oath do helloween:

PM |-----------| |-----------------|
e|------------------------------------------------------|
B|------------------------------------------------------|
G|--12h14p12-------------12h14p12----12-----------------|
D|-----------15-14-12-12----------15----14-15-12-14-----|
A|--------------------------------------------------15--|
E|------------------------------------------------------|



Tem também uma seqüência de arpeggios que eu postei
num tópico antes que eu adoro:

e----------2-5-2------------|----------3-7-3------------
B--------3-------3----------|--------5-------5----------
G------2-----------2--------|------4-----------4--------
D----4---------------4------|----5---------------5------
A--5-------------------5----|--7-------------------7----
E---------------------------|---------------------------



Arpeggio com desenho em E


e----------------7-10-7---------------------------------
B--------------8--------8-------------------------------
G----------4-7------------7-4---------------------------
D--------5--------------------5-------------------------
A------5------------------------5-----------------------
E--3-7----------------------------7-3-------------------



Arpeggio com desenho em Em

e----------------6-10-6----------------------------------
B--------------8--------8--------------------------------
G----------3-7------------7-3----------------------------
D--------5--------------------5--------------------------
A------5------------------------5------------------------
E--3-6----------------------------6-3--------------------



Você pode usar o desenho de Em descendo
e quando for subir os tons,
pode usar o de Dm. Ou usar o de E descendo
e depois voltar no formato em D.

Ou então emendar tudo com escala:


v v v v v ^ v ^ v ^ v ^ v ^ v ^ v ^ v ^ v ^ v
e----------7-10-8-7------------------------------------
B--------8----------10-8-7-----------------------------
G------7-------------------9-7-5-----------------------
D----9---------------------------9-7-5-----------------
A-10-----------------------------------9-7-5-----------
E--------------------------------------------8-7-5-----
^ v v v v ^ v v ^ v ^ ^ ^ ^
e----------------7-14-10-------------------------------
B--------------8---------12----------------------------
G----------4-7--------------11-------------------------
D--------5---------------------12----------------------
A------5--------------------------14-------------------
E--3-7-------------------------------------------------




Overdoser
Veterano
# nov/03
· votar



um que eu uso pra brincar

e--5h8p5--8/10--5-8---8-10-10b12--10-8--------------
B--------------------------------------10-8--------
G-------------------------------------------9~~~~---
D-----------------------------------------------------
A--------------------------------------------------
E------------------------------------------------




Overdoser
Veterano
# nov/03
· votar



sweep é nojento...hauhahaa..
humm.. lickzinhos.. massa esse tópico =]


e----------------------8---10rb-----------------------------
B--------------8---10-----------8---------------------------
G---5----7/9-----------------------------------------------
D---5----7----------------------------------------------
A---5----7----------------------------------------------
E---5------8---------------------------------------------




Overdoser
Veterano
# nov/03
· votar



e---------5---------------------------------------------
B-------5---8->10-------------------------------------------
G--7b(9)---------------------------------------------------
D------------------------------------------------------
A------------------------------------------------------
E------------------------------------------------------

onde tem 7b(9) é pra fazer
um bend na casa sete de um
tom..tipo bend na sete soando como
se fosse casa nove..bend de um tom!




louviah
Veterano
# nov/03
· votar


Estou abismado!!!

PARABENS OVER ATE QUE ENFIM!!!

Overdoser
Veterano
# nov/03
· votar


e-----4----3----2-----0-----------------------------

B---------------------0-----------------------------
G---4--4-3--3-2---2---1-----------------------------
D---------------------0-----------------------------
A---------------------2-----------------------------
E---------------------0-----------------------------
pra finalizar um blues





e-------------------------------------0-----
B-5----5--5----5--5-----5-------------0-----
G---------------------------0->-1-----------
D-------------------------------------------
A-4--4----3--3----2--2------0->-2-----------
E----------------------------------0--------
outro pra finalizar um blues!




Overdoser
Veterano
# nov/03
· votar


ufa, acho que acabou... se acharem mais postem ai

Freiheit
Veterano
# nov/03
· votar


Eu ainda tenho mais umas porcarias aqui... mas são grandes, vou dar um jeito e depois eu posto aqui...

Max
Veterano
# nov/03
· votar


E ae negada...deixei esse topico la no alto sempre....pq ta massa!

metal_defender
Veterano
# nov/03
· votar


Max
ou....podia apagar os posts e deixar so os exercicios aki depois kra!!

Imnomine
Veterano
# nov/03
· votar


Exercicíos de cordas soltas (guitar player/novembro)


e---------------------8--5--0--12--10--0--8--5-----20-17--0-
B-----------------------------------------------0-------
G------------7--5--0--------------------------------------
D---5--2--0-----------------------------------------------
A------------------------------------------------------
E------------------------------------------------------


Overdoser
Veterano
# nov/03
· votar


POST ERRADO DO PARANOID


meu professor me passou uns assim (achu q naum tm iguais ali antes, ql q coisa disculpa):

e--------------------------------------4---------------
B-------------------------4---------3----------------4-
G----------4-----------3---------2----------------3----
D-------3-----------2---------1---------------2--------
A----2-----------1------------------------1------------
E--1---------------------------------------------------



e-------------------------------------4-1-------------------
B----------------------4-1-----------3-----2----------4-1---
G------4-1-----------3-----2-------2---------3-------3---2--
D----3-----2-------2---------3---1-------------4---2------3-
A--2---------3---1-------------4-----------------1---------4
E-1------------4--------------------------------------------

esse aqui eh 1 soh:
e-----------------1-2-1-3--------------------------------1-4
B--------------1-2-------1-3--------------------------1-4--
G-----------1-2-------------1-3--------------------1-4-----
D-------1-2--------------------1-3--------------1-4--------
A----1-2--------------------------1-3--------1-4-----------
E-1-2--------------------------------1-3--1-4--------------



e-3-4------------------------------------------2-4---------
B-----3-4----------------------------------2-4-------------
G---------3-4--------------------------2-4-----------------
D-------------3-4------------------2-4---------------------
A-----------------3-4----------2-4-------------------------
E---------------------3-4--2-4-----------------------------

e-1-4----------------------------------------------------
B-----1-4------------------------------------------------
G---------1-4--------------------------------------------
D-------------1-4----------------------------------------
A-----------------1-4------------------------------------
E---------------------1-4--------------------------------


Barbara Jolie
Veterano
# nov/03
· votar


palheta assim: VVVVVV^^^^^^VVVVVV^^^^^^VVVVV

Como q é isso? Como q se faz?

[Auxília por aqui? Ou é só exercício?]

Freiheit
Veterano
# nov/03
· votar


Se eu nao me engano, isso indica Sweep...

Enviar sua resposta para este assunto
        Tablatura   
Responder tópico na versão original
 

Tópicos relacionados a Relação dos exercícios postados no fórum