Relação dos exercícios postados no fórum

Autor Mensagem
_Du_Du_
Veterano
# jan/04
· votar


eu comecei assim

e|----------------------------------------------------1-2-3-4------
B|-----------------------------------------1-2-3-4-----------------
G|-------------------------------1-2-3-4---------------------------
D|---------------------1-2-3-4-------------------------------------
A|-----------1-2-3-4-----------------------------------------------
E|-1-2-3-4---------------------------------------------------------
(va fazendo sempre mantendo os dedos apertando as corda, ou seja, com eles juntos, e va posicionando um d cada vez)
E|-1-2-3-4-

Dashard Jukka
Veterano
# jan/04
· votar


Menor Harmonica Am (C)


e---------------10--12-13------------------------------
B------------9-10-12-13--------------------------------
G----------9-10----------------------------------------
D---------9-10-12--------------------------------------
A-----12-----------------------------------------------
E------------------------------------------------------


Dashard Jukka
Veterano
# jan/04
· votar


Exercicio em Em


e------------------------------------------------------
B------------------------------------------------------
G------------------------------------------------------
D-----------------------------------2----2-4---2-4-5---
A--------2------2-3---2-3-5--2-3-5----3-5----5---------
E--2-3-5----3-5-----5----------------------------------


Escala de C Aberta - boa pra pegar velocidade


e--------------------------------------5-7-8-----------
B-------------------------------5-6-8------------------
G------------------------4-5-7-------------------------
D------------------3-5-7-------------------------------
A-----------3-5-7--------------------------------------
E----3-5-7---------------------------------------------


Lick em Dm


e------10---12----13----12----10-8-10------------------
B----10--10----10----10----10--------10-11-8-10--------
G------------------------------------------------------
D------------------------------------------------------
A------------------------------------------------------
E------------------------------------------------------


Lick de Blues em Am (C)


e--------------8--8-10-12-10-8----------------------------
B---------8-10--10-------------10------------------------
G---7-8-9-----------------------------------------------
D------------------------------------------------------
A------------------------------------------------------
E------------------------------------------------------


Depois eu vo postar mais....

[]'s

Dashard Jukka
Veterano
# jan/04
· votar


Arpegios em Dm


e--------------5-8-5-----------------------------------
B------------6-------6---------------------------------
G----------7-----------7-------------------------------
D--------7---------------7-----------------------------
A----5-8-------------------8-5-------------------------
E------------------------------------------------------



Lick em Am Harmonica


e----------------------7-8-10-8-7-5-4-----4-5----------
B-----------------9-10-------------------5----5-10-----
G----------7-9-10--------------------------------------
D-6-7-9-10---------------------------------------------
A------------------------------------------------------
E------------------------------------------------------


Arpegio em Em


e-----------7-10-12-10-12------------------------------
B----------8-------------------------------------------
G--------9---------------------------------------------
D----7-9-----------------------------------------------
A------------------------------------------------------
E------------------------------------------------------


[]'s

frlipe
Veterano
# jan/04
· votar


Alguém pode mandar uns rifs?

Não sei se é ousadia, mas..., alguém sabe alguam música do edu ardanuy?
Valeu!!!

ShelterYYZ
Veterano
# jan/04
· votar


cara, do edu eu sei tocar zero.. have you ever seen the rain, e futebol mulher e rock and roll..
tem essas tabs no cifra club aqui.. so a zero q num ta inteira..
e fire tem no site do edu ..

frlipe
Veterano
# jan/04
· votar


qual é o site?

LuizFB
Veterano
# jan/04
· votar


Parabéns pela iniciativa, Overdoser. É disso que muitos guitarristas, principalmente os auto-didatas como eu, precisam p/ ter um progresso maior ao "namorar" a guitarra. Eu naum sei se tem esses exercicios, mas vou passar pq foi fundamental p/ "soltar" o meu dedo 4, e tb alguns p/ abertura entre os dedos. Vale lembrar, pelo menos no meu caso, as aberturas mais dificeis são do dedo 2 c/ o 3, e principalmente do 3 com o 4. Quem tiver mais exercicios desses , coloquem aki tb, contribuam. Vlwz. Segue no proximo post.

LuizFB
Veterano
# jan/04
· votar



e1-2-----------------------------------------2-3-...------
B----1-2---------------------------------2-3--------------
G--------1-2-------------------------2-3------------------
D------------1-2-----------------2-3----------------------
A----------------1-2---------2-3--------------------------
E--------------------1-2-2-3------------------------------

e--3-4---------------------------------------------------
B------3-4-----------------------------------------------
G----------3-4-------------------------------------------
D--------------3-4--------------------------------------
A------------------3-4---------4-5...--------------------
E----------------------3-4-4-5---------------------------


OBS: é um exercício simples, porém, este exercício é p/ soltar o "dedinho". Toque este exercício utilizando APENAS o dedo 3 e dedo 4. Se vc quiser, depois poderá adaptar p/ os outros dedos (ex: dedo 2 e 3), visando as necessidades que vc necessita. Este exercício deve ser feito até onde vc conseguir e até onde vc tiver saco pra fazer. É interessante, quando chegar no lá pela casa 22 ou 24, fazer o exercício voltando p/ casa 1. Mas como disse, tem q ter saco. Eu faço outra variação simples desse exercício:

e-1-2----------------------------------------3-2-...-------
B-----1-2--------------------------------3-2---------------
G---------1-2-------------------------3-2------------------
D-------------1-2-----------------3-2----------------------
A-----------------1-2---------3-2--------------------------
E---------------------1-2-3-2------------------------------

e-...-3-4------------------------------------------------
B---------3-4--------------------------------------------
G-------------3-4----------------------------------------
D-----------------3-4-----------------5-4...-------------
A---------------------3-4---------5-4--------------------
E-------------------------3-4-5-4------------------------


OBS: Mesmo processo do anterior, usar dedos 3 e 4 p/ execução. Outra variação, mais legal e mais difícil tb:


e-1-2-----------------------------------------3-2-3-4-------
B-----2-1---------------------------------2-3---------4-3...
G---------1-2-------------------------3-2------------------
D-------------2-1-----------------2-3----------------------
A-----------------1-2---------3-2--------------------------
E---------------------2-1-2-3------------------------------


LuizFB
Veterano
# jan/04
· votar


Agora p/ abertura de dedo. Este deve ser feito de tal forma que ao tocar com o dedo 1, vc mantem ele apertado, toca o dedo 2, mantem apertado ele +dedo 1, toca o dedo 3, mantem ele apertado+ dedo 2 + dedo 1, toca dedo 4, e mantém os outros dedos apertados. Issu dificulta a execução, mas é essa a intenção. Qdo vc for começar a sequencia na corda de baixo ou de cima, ou seja, qdo for tocar o dedo 1 de novo, vc toca ele, mas continua mantendo apertados os outros dedos na corda de cima/baixo. Issu dificulta ainda mais, pode sair abafado, mas tentar tocar o mais limpo possível


e-----------------------------------------3-5-7-8...-------
B---------------------------------3-5-7-8------------------
G-------------------------3-5-7-8--------------------------
D-----------------3-5-7-8----------------------------------
A---------3-5-7-8------------------------------------------
E-3-5-7-8-------------------------------------------------

e-...----------------------------------------------------
B----3-5-7-8-----------------------------------------------
G------------3-5-7-8---------------------------------------
D--------------------3-5-7-8-------------------------------
A----------------------------3-5-7-8-----------------------
E------------------------------------3-5-7-8---------------
OBS: 3 = dedo 1; 5 = dedo 2; 7= dedo 3; 8= dedo 4

LuizFB
Veterano
# jan/04
· votar


Abertura de dedo 2-3 e 3-4:

e-5-7-9---------------------------------------------------
B-------5-7-9---------------------------------------------
G-------------5-7-9-------------------------------5-7-9...-
D-------------------5-7-9--------------------5-7-9---------
A-------------------------5-7-9--------5-7-9---------------
E-------------------------------5-7-9---------------------

OBS : 5= dedo 2; 7= dedo 3; 9= dedo 4

Execute estes acordes:

e--------5-----5-----------------------------------------
B--7-----7-----7------------------------------------------
G--8-----8-----7------------------------------------------
D--10-----10----9-------------------------------------------
A--12----------------------------------------------------
E------------------------------------------------------


LuizFB
Veterano
# jan/04
· votar


Mais exercícios p/ dedo 4:


e--3h4p3-------3h4p3-----------------------------------
B--------4p3h4-------4p3h4-----------------------------
G------------------------------------------------------
D------------------------------------------------------
A------------------------------------------------------
E------------------------------------------------------



e--3h4p3h4p3h4p3h4p3h4...------------------------------
B------------------------------------------------------
G------------------------------------------------------
D------------------------------------------------------
A------------------------------------------------------
E------------------------------------------------------


Nesse ultimo exercicio, dar apenas a palhetada inicial, sem usar depois a palheta. Para sair algum som, vai precisar da força do seu dedo 3 e 4 martelando!

e-----5h9p5-------5h9p5...--------------------------------
B-5h8-------8p5h8--------------------------------------
G------------------------------------------------------
D------------------------------------------------------
A------------------------------------------------------
E------------------------------------------------------

Este ultimo exemplo é feito em Mixolídio e soa um tanto qto legal qdo executado rapidamente. Bom, da minha parte, esse saum os exercícios! Vlwz ae!

LuizFB
Veterano
# jan/04
· votar


Desculpa gente, o ultimo exemplo é executado em penta com M7. Foi malz ae!

Vander
Veterano
# jan/04
· votar


Tem um de pentatonica em:
http://www.geocities.com/guitarraseguitarreiros/pspicking.htm

Homem Cueca
Veterano
# jan/04
· votar


frase em Am melodica

e--------------------------------------5-7-8~~~~--------------
B------------------------------------7------------------
G------------------------------5-7-9----------------------
D----------2-4-6-4-----------6------------------------------
A--------3---------3-2-3-5/7---------------------------------
E--2-4-5--------------------------------------------------


Homem Cueca
Veterano
# jan/04
· votar


bom pra sweep...

gunsnzeppelins
Veterano
# jan/04
· votar


Caramba, deve ter cansando postar todos esses exercícios, mas parabéns eu adorei os exercícios...

Peba
Veterano
# jan/04
· votar


Parabéns pela paciência!!

marcio_zav
Veterano
# jan/04
· votar


Num sei c alguem ja postou esse lick do Angus Young.

e-------12------------------------------------
B--15b----15-12----12-------------------------
G---------------14----14-12----14----12-------
D---------------------------14----14----------
A---------------------------------------------
E---------------------------------------------


silvio_rp
Veterano
# jan/04
· votar


Ae galera, dei uma ajeitada nos exercicios postados nas duas primeiras paginas desse post pra imprimir melhor... peguem ae e se alguem quizer continuar completando pode manda bala!!

http://raper.uol.sites.uol.com.br/disco_virtual/compartilhada/Silvio/e xercicios_guitarra.doc

Midnight
Veterano
# jan/04
· votar


nao sei se já foi postado, mas aih vai um exercicio de salto de uma nota em G Jonio

e------------------------------------------------2---3-2-5--
B----------------------------------------3---5-3---5--------
G----------------------------2---4-2-5-4---5----------------
D----------------2---4-2-5-4---5----------------------------
A----2---3-2-5-3---5----------------------------------------
E--3---5----------------------------------------------------



e-5-2-3---2-------------------------------------------------
B-------5---3-5---3-----------------------------------------
G---------------5---4-5-2-4---2-----------------------------
D---------------------------5---4-5-2-4---2-----------------
A---------------------------------------5---3-5-2-3---2-----
E---------------------------------------------------5--3-2-3


eu faço este exercício,descendo e subindo, em todos os modos e tento fazer com salto de 2 ou 4 notas

james hammet
Veterano
# jan/04
· votar


bom exercício

e-1-5----------------
B-----1-3----------------
G--------1-5----------------
D------------1-3---------------
A----------------1-5-------------
E-------------------1-3----------
vai e volta

james hammet
Veterano
# jan/04
· votar



e-1-5----------------------------------------------------
B-----1-3------------------------------------------------
G---------1-5--------------------------------------------
D-------------1-3----------------------------------------
A-----------------1-5------------------------------------
E---------------------1-3--------------------------------


Glauber1
Veterano
# fev/04
· votar


Otimo este topico com a ajunda da galera vc ate que aprende bem.

Gab
Veterano
# fev/04
· votar


Saca só criei agora:

T T
e-20p19p18p17p16-19p18p17p16p15---ETC------------------
B------------------------------------------------------
G------------------------------------------------------
D------------------------------------------------------
A------------------------------------------------------
E------------------------------------------------------
Voltamdo sempte uma casa, corda por corda , então


e------------------------------------------------------
B------------------------------------------------------
G------------------------------------------------------
D------------------------------------------------------
A------------------------------------------------------
E-1h2h3h4t5-2h3h4h5t6-etc.--------------------------------

Sempre decendo uma casa, ate a casa 20 da mizinha...

VRock
Veterano
# fev/04
· votar


e----------2-5-2---------------2-5-2-5-2-------2-5-2--
B--------3-------3-----------3-----------3---3--------
G------2-----------2-------2---------------2----------
D----4---------------4---4----------------------------
A--5-------------------5------------------------------
E-----------------------------------------------------

e-------2-7-4-------4-7-4-------4-9-6-------6-9-6-----
B-3---3-------5---5-------5---5-------7---7-------7---
G---2-----------4-----------4-----------6-----------6~~~
D-----------------------------------------------------
A-----------------------------------------------------
E------------------------------------------------------

Tocar os Arpejos da forma q quiser variando de tons do jeito q preferir!!!

grafitte
Veterano
# fev/04
· votar


LuizFB
Execute estes acordes:
e--------5-----5-----------------------------------------
B--7-----7-----7------------------------------------------
G--8-----8-----7------------------------------------------
D--10-----10----9-------------------------------------------
A--12----------------------------------------------------
E------------------------------------------------------

na boa, esses dois primeiros ai, qse quebrei meu pulso, pqp hehe..o ultimo dah na boa, agora esses dois 1º

Homem Cueca
Veterano
# fev/04
· votar


Exercicio do meu prof. Ex em D maior

e--5----------------------------------------------------
B----------3--------------------------------------------
G----2--------------------------------------------------
D----------------4--------------------------------------
A-------5-----------------------------------------------
E-------------2-----------------------------------------

Pentatonica:

e--3-6---------------------------------------------------
B---------------3-6--------------------------------------
G------3-5-----------------------------------------------
D-------------------------3-5----------------------------
A----------3-5-------------------------------------------
E--------------------3-6---------------------------------

A lidio:

e---11-9-7-------------------------------------------------
B----------------------10-9-7------------------------------
G----------9-8-6------------------------------------------
D------------------------------------9-7-6----------------
A----------------9-7-6------------------------------------
E------------------------------9-7-5----------------------

Cromatismo:

e-4-3-2-1--------------------------------------------------
B-------------------------5-4-3-2--------------------------
G---------5-4-3-2------------------------------------------
D------------------------------------------6-5-4-3---------
A-----------------7-6-5-4----------------------------------
E----------------------------------8-7-6-5-----------------


LeandroP
Moderador
# fev/04 · Editado por: LeandroP
· votar


Vou colocar uns "turn-arounds" que serve muito pra blues, rock, country, finais de músicas em geral. Quem tiver mais posta aqui.

Esse é uma progressão que usa o seguinte:

C/E, Ebº, Dº e C
(pode ser indo e voltando)

<pre>
e------------------------------------------------------
B---8----7----6----5-----------------------------------
G---5----5----4----5-----------------------------------
D---8----7----6----5-----------------------------------
A---7----6----5----3-----------------------------------
E------------------------------------------------------
</pre>



Em Ré (com pedal-point na corda Ré)

<pre>
e------2------1------3---------------------------------
B------3------0------3---------------------------------
G------2------1------3---------------------------------
D---0------0------0------------------------------------
A------------------------------------------------------
E------------------------------------------------------
</pre>

LeandroP
Moderador
# fev/04
· votar


O mesmo com pedal-point em Ré. Podem ser feito os dois juntos:



e------5------4--------3-------2-----------------------
B------7------6--------5-------3-----------------------
G------5------4--------3-------2-----------------------
D---0------0-------0--------0--------------------------
A------------------------------------------------------
E------------------------------------------------------


Enviar sua resposta para este assunto
        Tablatura   
Responder tópico na versão original
 

Tópicos relacionados a Relação dos exercícios postados no fórum