Relação dos exercícios postados no fórum

Autor Mensagem
Overdoser
Veterano
# nov/03


estava procurando exercicios na busca e vi que tem muitos topicos sobre exercicios de guitarra, entao vou junta-los neste topico pra facilitar a busca da galera ai

nao se acostumem com a boa vontade aqui, perai...

Overdoser
Veterano
# nov/03 · Editado por: Overdoser
· votar



EXERCICIOS DE VELOCIDADE

Aquecimento
------------------------------------5-6-7-8-
-----------------------------5-6-7-8--------
----------------------5-6-7-8---------------
---------------5-6-7-8----------------------
--------5-6-7-8-----------------------------
-5-6-7-8------------------------------------
outras digitações: 5 8 6 7, 6 5 8 7, 5 7 6 8, etc

---------------------------------
---------------------------------
-5-5-5-5-5-5-5-5-5-5-5-5-5-5-5-5-
---------------------------------
---------------------------------
---------------------------------

Exercícios
---------------------------------------------------------
---------------------------------------------------------
-5-4-3-2-6-5-4-3-...-22-21-20-19-21-20-19-18-...-5-4-3-2-
---------------------------------------------------------
---------------------------------------------------------
---------------------------------------------------------

---------------------------------------------------------
---------------------------------------------------------
-2-3-4-5-3-4-5-6-...-19-20-21-22-18-19-20-21-...-2-3-4-5-
---------------------------------------------------------
---------------------------------------------------------
---------------------------------------------------------

---------------------------------------------------------
----------------------------------------------------15^^-
-2222-4444-5555-7777-9999-11111111-12121212-14141414-----
---------------------------------------------------------
---------------------------------------------------------
---------------------------------------------------------

---------------------------------7-7-7-7-12-
--------------------------9-9-9-9-----------
-------------------9-9-9-9------------------
--------10-10-10-10-------------------------
-7-7-7-7------------------------------------
--------------------------------------------
Sequências
------5-7-8-----8-7-5----------------5---------8-7-5---5-7-
-5-6-7---------------8-6-5-----5-6-8---8-6-----------8-----
-----------------------------------------------------------
-----------------------------------------------------------
-----------------------------------------------------------
-----------------------------------------------------------

-5h7p5h7p5h8p5h8p5h9p5h9p5-
---------------------------
---------------------------
---------------------------
---------------------------
---------------------------

--------------------------------------------------5-7-8-7-
---------------------------------------------5-7-8--------
----------------------------------2-4-5-2-4-5-------------
-----------------------2-4-5-2-4-5------------------------
------------2-3-5-2-3-5-----------------------------------
-2-3-5-2-3-5----------------------------------------------

------------------------------8-10-13-
-----------------------8-10-13--------
-----------------5-7-10---------------
-----------5-7-10---------------------
------3-5-8---------------------------
-3-5-8--------------------------------

---------------------------7-8-10-
---------------------7-8-10-------
----------------4-5-7-------------
-----------4-5-7------------------
------2-3-5-----------------------
-2-3-5----------------------------

----------------------------8-10-12-
---------------------8-10-12--------
----------------5-7-9---------------
-----------5-7-9--------------------
------3-5-7-------------------------
-3-5-7------------------------------

--------------------------------10-12-14-
------------------------10-12-13---------
-----------------7-9-11------------------
-----------7-9-10------------------------
------5-7-9------------------------------
-5-7-8-----------------------------------

------5-7-8------7-8-10-------8-10-12--------10-12-13-------
-5-6-8-----6-8-10------8-10-12-------10-12-13-------12-13-15
------------------------------------------------------------
------------------------------------------------------------
------------------------------------------------------------
------------------------------------------------------------
continuação
-12-13-15--------13-15-17--------15-17-19--------17-19-20-
---------13-15-17--------15-17-18--------17-18-20---------
----------------------------------------------------------
----------------------------------------------------------
----------------------------------------------------------
----------------------------------------------------------
Escalas
a)Modos Gregos- G

Jônio
-------------------------------5-7-8-
-------------------------5-7-8-------
-------------------4-5-7-------------
-------------4-5-7-------------------
-------3-5-7-------------------------
-3-5-7-------------------------------

Dório
--------------------------------7-8-10-
-------------------------7-8-10--------
-------------------5-7-9---------------
-------------5-7-9---------------------
-------5-7-9---------------------------
-5-7-8---------------------------------

Frígio
-------------------------------------8-10-12-
-----------------------------8-10-12---------
----------------------7-9-11-----------------
---------------7-9-10------------------------
--------7-9-10-------------------------------
-7-8-10--------------------------------------

Lídio
------------------------------------------10-12-14-
---------------------------------10-12-13----------
-------------------------9-11-12-------------------
-----------------9-10-12---------------------------
---------9-10-12-----------------------------------
-8-10-12-------------------------------------------

Mixolídio
----------------------------------------------12-14-15-
-------------------------------------12-13-15----------
----------------------------11-12-14-------------------
-------------------10-12-14----------------------------
----------10-12-14-------------------------------------
-10-12-14----------------------------------------------

Eólio
----------------------------------------------14-15-17-
-------------------------------------13-15-17----------
----------------------------12-14-16-------------------
-------------------12-14-16----------------------------
----------12-14-15-------------------------------------
-12-14-15----------------------------------------------

Lócrio
----------------------------------------------15-17-19-
-------------------------------------15-17-19----------
----------------------------14-16-17-------------------
-------------------14-16-17----------------------------
----------14-15-17-------------------------------------
-14-15-17----------------------------------------------


Overdoser
Veterano
# nov/03
· votar




tapping facil para vc começar:


e--12p5h8h12p5h8h12p5h8h12...--------------------------
B----------------------------12p5h8h12p5h8h12p5h8h12...
G------------------------------------------------------
D------------------------------------------------------
A------------------------------------------------------
E------------------------------------------------------




e------------------------------------------------------
B-12p5h8h12p5h8h12p5h8h12...---------------------------
G--------------------------12p5h8h12p5h8h12p5h8h12...--
D------------------------------------------------------
A------------------------------------------------------
E------------------------------------------------------



depois, qdo estiver legal...


e------------------------------------------------------
B-12p5h8h12p5h8h12p5h8h12p5h8h13p5h8h13p5h8h13p5h8h13p5
G------------------------------------------------------
D------------------------------------------------------
A------------------------------------------------------
E------------------------------------------------------




e------------------------------------------------------
B-h7h10p5h7h10p5h7h10p5h7h10p5h7h12p5h7h12p5h7h12p5h8h12
G------------------------------------------------------
D------------------------------------------------------
A------------------------------------------------------
E------------------------------------------------------

Taca um bom ganho na distorção, talvez um compressor
se achar necessário e vai treinando para soltar bem os dedos.




Overdoser
Veterano
# nov/03
· votar




Two Hands

e------------------------------------------------------
B------------------------------------------------------
G--5-8-5-12t-(2x)-5-8-5-13t-(2x)--3-7-3-12t-(2x)-3-7-3-13t-(2x)-
D------------------------------------------------------
A------------------------------------------------------
E------------------------------------------------------


T= dedo ai pra vc treinar<pre>
e------------------------------------------------------
B------------------------------------------------------
G--1-5-1-12t-(2x)-1-5-1-10t-(2x)---------------------------
D------------------------------------------------------
A------------------------------------------------------
E------------------------------------------------------




Overdoser
Veterano
# nov/03
· votar



IRON MAIDEN....solos do Dave Murray...ehehehhee
vi uma video aula com o adrian smith e tinha isso aqui:


e------------------------------------------------------
B-5h6p5h6p5h6-5h7p5h7p5h7-5h8p5h8p5h8------------------
G------------------------------------------------------
D------------------------------------------------------
A------------------------------------------------------
E------------------------------------------------------


faz isso varias vezes em varias partes do braço...
e etc...ai vc treina todos os dedos...
Eh legal treinar essa variação do ex do Dave Murray:

e------------------------------------------------------
B---5h7h8p7p5h7h8p7p5--ou 5h6h8p6p5...-----------------
G------------------------------------------------------
D------------ou uns cromáticos-------------------------
A------------------------------------------------------
E------2h3h4p3p2...------------------------------------
E esse exercício (usa a escala q vc quiser, essa é a
penta de Am)

e-------------------------5h8p5------------------------
B---------------------5h8-------8p5--------------------
G-----------------5h7---------------7p5----------------
D-------------5h7-----------------------7p5------------
A---------5h7-------------------------------7p5--------
E-----5h8---------------------------------------8p5h8...
acho q com isso vc abrange todas as possibilidades. Se quiser
inventar mais, começa a fazer uns licks (inventa na hora)
de ligados emendados em bends ou slides e coisas do tipo
LIGADURAS:
e--------------------------------------------------10h12p10
B--------------------------------------------5h8h5---------
G---------------------------------6h9p6--------------------
D----------------------------5h7p5-------5h7---------------
A---------------5h7p5-5h7p5--------------------------------
E--5h7p5-5h7p5---------------------------------------------


e|-----------------------------
B|-----------------------------
G|----------------------7h9h10-
D|---------------7h9h10--------
A|--------7h8h10---------------
E|-7h8h10----------------------


e|-----------------------------
B|-----------------------------
G|-10p9p7----------------------
D|--------10p9p7---------------
A|---------------10p8p7--------
E|----------------------10p8p7-

e|-------------------5h7----------------------------
B|--------------5h7------------------------------------
G|---------5h7-----------------------------------------
D|---5h7--------------------5h7---------------------5h7-
A|----------------------5h7-------------5h7---5h7------
E|-------------------------------5h7-------------------

e|-----------------------7p5-----------------------------
B|-------------------7p5--------------------------------
G|---7p5------------------------------------------------
D|---------7p5---7p5-------------------------7p5--------
A|----------------------------7p5---7p5---------------7p5-
E|-------------------------------------7p5--------------
Desce e sobe escalas com pull offs e hamer ons:
e--------------------3h5p3--------------------------------
B---------------3h5h6------6p5p3--------------------------
G----------2h4h5----------------5p4p2---------------------
D-----2h3h5--------------------------5p3p2----------------
A--3h5------------------------------------5p3p2-----2h3---
E----------------------------------------------5p3h5------

( escala natural de C)



Overdoser
Veterano
# nov/03
· votar



ARPEJOS:
e-------------7-12-7---------------------------------------
B-----------8--------8-----------------------------------
G---------9------------9---------------------------------
D-------9----------------9-------------------------------
A--7-10--------------------10-7------------------------
E------------------------------------------------------



Overdoser
Veterano
# nov/03
· votar




-12-13-12-10----------------------10-12-13-12-10---------
-------------13-12-10----10-12-13------------------------
----------------------13---------------------------------
---------------------------------------------------------
---------------------------------------------------------
---------------------------------------------------------
(Stratosphere -Stratovarius)

------13-14-13-10------------------------------------------
------------------14-12-10---------------------------------
---------------------------13-11-10------------------------
------------------------------------12-11---9--------------
----------------------------------------------12-11-9-8----
-----------------------------------------------------------
(Far Beyond the Sun - Malmsteen)



e------------------------------------------------------
B------------------------------------------------------
G------------------------------------------------------
D-7-------------7-------------7------------------------
A-5-5-5-5-5-5-5-5-5-5-5-5-5-5-5------------------------
E------------------------------------------------------


palheta assim: VVVVVV^^^^^^VVVVVV^^^^^^VVVVV

e-----1---------------------2-2---------------------3-3
B-------2-----------------3-----3-----------------4----
G---------3-------------4---------4-------------5------
D-----------4---------3-------------5---------4--------
A-------------3-----2-----------------4-----3----------
E---------------2-1---------------------3-2------------

E vai aumentando ate nao poder mais



Overdoser
Veterano
# nov/03
· votar



ABERTURA DOS DEDOS:

e--------------------------1-6---------------------------
B----------------------1-6------1-6------------------------
G------------------1-6--------------1-6-------------------
D-------------1-6-----------------------1-6----------------
A--------1-6--------------------------------1-6------------
E---1-6-----------------------------------------1-6---------



e-------------13-----------13--------------10-----------10--
B---------12-----------11--------------11-------------12----
G-----11-----------12--------------12--------------11-------
D--10-----------10--------------13--------------13----------
A-----------------------------------------------------------
E-----------------------------------------------------------
vai fazendo isso, depois vai indo pra tras no braço.



-------------------------------------------------------
-------------------------------------------------------
-------------------------------------------------------
-------------------------------------------5-6-7-8-----
------------------------3-4-5-6-6-5-4-3----------------
--0-1-2-3-4-4-3-2-1------------------------------------




Overdoser
Veterano
# nov/03
· votar



esse e massa e ainda envolve pentatonica!
e|-----------------------------------------------------5-
b|-----------------------------------------5---5-8-5-8---
g|-----------------------------5---5-7-5-7---7-----------
d|-----------------5---5-7-5-7---7-----------------------
a|-----5---5-7-5-7---7-----------------------------------
E|-5-8---8-----------------------------------------------
parece foda, mas e facinho de pegar!





Overdoser
Veterano
# nov/03
· votar


daqui um pouco eu posto mais....

Overdoser
Veterano
# nov/03
· votar


e------------------------------------------------------

B---------------------------------------------9-11-10-12
G--------------------------8-10-9-11-------------------
D---------7-9-8-10-------------------7-9-8-10----------
A------------------6-8-7-9-----------------------------
E-5-7-6-8----------------------------------------------


sobe assim até a mi, depois vai descendo
esse aí é quebra dedo hehe


Overdoser
Veterano
# nov/03 · Editado por: Overdoser
· votar


<pre>e8-5-7-8-10-7-8-10-12-8-110-12-13-10-12-13-15-12-13-15-17-13-15-1 7-19- 15-17-19-20---
B------------------------------------------------------
G------------------------------------------------------
D------------------------------------------------------
A------------------------------------------------------
E------------------------------------------------------

</pre>

Overdoser
Veterano
# nov/03
· votar




e8-5-7-8-10-7-8-10-12-8-110-12-13-10-12-13-15-12-13-15-17-13-15-1 7-19- 15-17-19-20---
B------------------------------------------------------
G------------------------------------------------------
D------------------------------------------------------
A------------------------------------------------------
E------------------------------------------------------



Overdoser
Veterano
# nov/03
· votar



tb tem esse pra swep picking

e-------------/12-\15-/12---------------------------------------
B----------/13-----------\13---------------------------------
G-------/12-----------------\12------------------------------
D----/14-----------------------\14---------------------------
A-/15-----------------------------\15------------------------
E------------------------------------------------------



obs: / = palhetada pra baixo e \= palhetada pra cima


Overdoser
Veterano
# nov/03
· votar





e------------------------------------------------------
B------------------------------------------------------
G---------------------------------------4-----4-5---4------
D---------------4-----4-5---4-5-7-4-5-7---5-7-----7---5-7-4-5--------- -
A---3-5-7-3-5-7---5-7-----7-------------------------------------
E------------------------------------------------------




Overdoser
Veterano
# nov/03
· votar



D---------2-3--------------
A-----2-5-----5-2----------
E---3---------------3------etc......





Overdoser
Veterano
# nov/03
· votar


e-------12-17p12----------------------------------------------

B-----13--------13-----------------------------------------
G---14------------14---------------------------------------
D------------------------------------------------------
A------------------------------------------------------
E------------------------------------------------------


tente fazer isso o mais rapido possivel....


Overdoser
Veterano
# nov/03
· votar


e-------12-17p12----------------------------------------------

B-----13--------13-----------------------------------------
G---14------------14---------------------------------------
D------------------------------------------------------
A------------------------------------------------------
E------------------------------------------------------


tente fazer isso o mais rapido possivel....


Overdoser
Veterano
# nov/03
· votar



tb tem a menor harmonica(minha predileta)

e--------------------------------5-6-8--------------------
B--------------------------4-7-8--------------------------
G--------------------3-5-7--------------------------------
D--------------4-5-7--------------------------------------
A--------3-5-6--------------------------------------------
E--3-5-6--------------------------------------------------


faça ida e volta.....


Overdoser
Veterano
# nov/03
· votar


e------------------------------------------------------

B--------------------------4-7-8--------------------------
G--------------------3-5-7--------------------------------
D--------------4-5-7--------------------------------------
A--------3-5-6--------------------------------------------
E--3-5-6--------------------------------------------------



Overdoser
Veterano
# nov/03
· votar



----------5-4----------------------------------------- ---------
--------------7-5------------------------------------------ ----
------------------7-6-4----------------------------------------
------------------------7-6-4-------------------4-5------------
---- --------------------------7-5-4------ 4-5-7-----4-5-7------
------------------------------------7-5-7------ -----------7-5--


Overdoser
Veterano
# nov/03
· votar




--------------5-2--------------------------------- --------
----------3-2---------------------------------------------
--------2-------------------------------------------------
---------- ------------------------------------------------
-------------------- --------------------------------------
-----3------------------------ ----------------------------

Faça o mais rápido e limpo possível. Começe devagar... Use metronomo lento e vá aumentando...


Overdoser
Veterano
# nov/03
· votar



acho que é em cima dessa base, qualquer coisa me corrijam...

C#m
-------------------------------------------------- ----
------------------------------------------------------
--13t--6 p--9h--13t--6p--9h--13t--6p--9h--13t--6p--9h--
---------------------- --------------------------------
------------------------------------ ------------------
-------------------------------------------------- ----

A
------------------------------------------------------
--- ---------------------------------------------------
--14t--6p--9h--14 t--6p--9--14t--6p--9h--14t--6p--9h---
------------------------------- -----------------------
--------------------------------------------- ---------
------------------------------------------------------

B x2
--------------------------------------------------------
-------- ------------------------------------------------
--16t--8p--11h--16t- -8p--11h--16t--8p--11h--16t--8p--11h
-------------------------------- ------------------------
-------------------------------------------- ------------
--------------------------------------------------------




Overdoser
Veterano
# nov/03
· votar



esse lick é muito usado para finalizar as musicas ao vivo do van halen:

-------------17--12p15-------------17t--12p15--
--17t--12p1 5------------17t--12p15-------------


Overdoser
Veterano
# nov/03
· votar



(2º corda, si)-
4h-5h-7-12t-7p-5p-4h-5h-7-12t-7p-5p-4h-5h-7-12t-7p-5p-4h-5h7-12t

(2º corda)
7p-5p-4h-5h-7-14t-7p-5p-4h-5h-7-14t-7p-5p-4h-5h-7-16t-7p-5p-4h -5h-7-17t-

(2º corda)
7p-5p-4h-5h-7-19t-7p-5p-4h-5h-7-12t-7p-5p-4h-5h-7-12t-7p-5p-4h -5h-7-12t-

(2º corda)
7p-5p-4h-5h-7-14t----------4h-5h-7-12t-

esse é um lick do wander taffo...



Overdoser
Veterano
# nov/03
· votar




e|------------------------------4-3-2-------------------------------|
B|------------------------1-2-3-------3-2-1-------------------------|
G|------------------4-3-2-------------------2-3-4-------------------|
D|------------1-2-3-------------------------------3-2-1-------------|
A|------4-3-2-------------------------------------------2-3-4-------|
E|1-2-3-------------------------------------------------------3-2-1-|


Esse exercício é muito bom para treinar a agilidade




Overdoser
Veterano
# nov/03
· votar



ai vo manda o meu:
Escala Natural F

-------------------------------3-5-7---
------------------------ -3-5-6---------
-------------------2-4-5---------------
------------ -2-3-5---------------------
-------2-3-5---------------------------
-1-3-5---------------------------------


Escala Natural G

-------------------------------5-7-8---
------------------------ -5-6-8---------
-------------------4-5-7---------------
------------ -3-5-7---------------------
-------3-5-7---------------------------
-3-5-7---------------------------------


Overdoser
Veterano
# nov/03
· votar



e mais um:
Escala Natural A

--------------------------------7-8-10--
----------------------- --6-8-10---------
-------------------5-7-9----------------
--------- ----5-7-9----------------------
-------5-7-8------------------------- ---
-5-7-8----------------------------------


Escala Natural B

-------------------------------------8-10-12
------------------- ----------8-10-12--------
----------------------7-9-10--------------- -
---------------7-9-10-----------------------
--------7-8-10------- -----------------------
-7-8-10-------------------------------------


Overdoser
Veterano
# nov/03
· votar



e mais uns:
Escala Natural C

------------------------------------------10-12-13
------------- --------------------10-12-13---------
-------------------------9-10-1 2------------------
-----------------9-10-12------------------------- -
---------8-10-12----------------------------------
-8-10-12------- -----------------------------------


Escala Natural D

----------------------------------------------12-13-15
--------- ----------------------------12-13-15---------
----------------------- -----10-12-14------------------
-------------------10-12-14---------- -----------------
----------10-12-14--------------------------------- ---
-10-12-13---------------------------------------------


Escal a Natural E

----------------------------------------------13-15-17
--------- ----------------------------13-15-17---------
----------------------- -----12-14-16------------------
-------------------12-14-15---------- -----------------
----------12-14-15--------------------------------- ---
-12-13-15---------------------------------------------
ESCALA PENTATÔNICA E PENTABLUES
I

---------------------5-7------
-----------------5-7- ---------
-------------4-6--------------
---------4-7--------------- ---
-----4-7----------------------
-5-7--------------------------


II

---------------------5-7------
-----------------5-8--------- -
-------------4-7--------------
---------5-7------------------
--- --5-7----------------------
-5-7--------------------------


III

---------------------5-8------
-----------------6-8----------
---- ---------5-7--------------
---------5-7------------------
-----5-8-- --------------------
-5-8--------------------------


IV

------ ---------------5-7------
-----------------5-7----------
------------ -4-7--------------
---------4-7------------------
-----5-7---------- ------------
-5-7--------------------------


V

--------------- ------5-8------
-----------------5-8----------
-------------5-7----- ---------
---------5-7------------------
-----5-7------------------- ---
-5-8--------------------------


VI

----------------------- --5-8---
---------------------5-8-------
---------------5-7-8------- ----
-----------5-7-----------------
-----5-6-7---------------------
-5-8---------------------------


VII

------------------------ -5-7-8---
---------------------5-7---------
---------------4-5-6---- ---------
-----------4-7-------------------
-------4-7-------------- ---------
-5-7-8---------------------------


VIII

------------ -------------5-6-7---
---------------------5-8---------
------------ -----4-7-------------
-----------5-7-8-----------------
-------5-7-- ---------------------
-5-6-7---------------------------


IX

-- -----------------------5-6-9---
---------------------7-9---------
-- ---------------6-8-------------
-----------6-7-8-----------------
-- -----6-9-----------------------
-5-6-9---------------------------


X

-------------------------5-7---
-------------------5-6-7------ -
---------------4-7-------------
-----------4-7-----------------
- ----5-7-8---------------------
-5-7---------------------------


E SCALA SIMÉTRICA
I

---------------------------------5-6-8---
----------- ----------------5-7-8---------
---------------------5-6-8------------ ---
-------------4-5-7-8---------------------
-------4-6-7---------- -------------------
-5-6-8-----------------------------------


II

-------------------------------4-5-7---
------------------------- 4-6-7---------
-------------------4-5-7---------------
------------- 4-6-7---------------------
-------5-6-8---------------------------
- 5-7-8---------------------------------


III

------------------- ------5-7-9---
---------------------6-8---------
---------------4-6- 8-------------
-----------5-7-------------------
-----4-6-8--------- --------------
-5-7-----------------------------


Diminutas

-- ---------------5-8------
-------------4-7----------
-----------5---- ----------
-------4-7----------------
-----6--------------------
-5 -8----------------------


Aumentadas

-------------5-9----------
-----------6--------------
---------6----------------
-------7---- --------------
-----8--------------------
-5-9----------------------





Overdoser
Veterano
# nov/03 · Editado por: Overdoser
· votar



e|------------------------------------1-3-5--------------------------- -----
B|-----------------------------1-3-5---------5-3-1------------- -------------
G|----------------------1-3-5-----------------------5-3 -1--------------------
D|---------------1-3-5------------------------ -------------5-3-1--------------
A|--------1-3-5--------------------- ------------------------------5-3-1--------
E|-1-3-5----------------- ------------------------------------------------5-3-1-

Esse é bom para treinar abertura dos dedos,
mas pode ser em outro lugar do braço se vc
quiser mas assim é mais difícil e eficiente.


Enviar sua resposta para este assunto
        Tablatura   
Responder tópico na versão original
 

Tópicos relacionados a Relação dos exercícios postados no fórum