Relação dos exercícios postados no fórum

Autor Mensagem
Agente Smith
Veterano
# nov/04
· votar


ae, um exercício q eu toh tocando de abertura:


e-----------7-1---------------------5-1--------------------
B---------5-----5-----------------3-----3------------------
G-------1---------7-------------1---------5----------------
D-----7-------------1---------5-------------1--------------
A---5-----------------5-----3-----------------3------------
E-1---------------------7-1---------------------5----------



e-----------5-1---------------------4-1--------------------
B---------2-----2-----------------3-----3------------------
G-------1---------5-------------1---------4----------------
D-----5-------------1---------4-------------1--------------
A---2-----------------2-----3-----------------3------------
E-1---------------------5-1---------------------4----------



e-----------3-1--------------3 ~~---------------------------
B---------2-----2------------3-~~---------------------------
G-------1---------3----------3-~~---------------------------
D-----3-------------1--------2-~~-cum alavanca--------------
A---2-----------------2------3-~~---------------------------
E-1---------------------3-----------------------------------


The New Guy
Veterano
# nov/04
· votar


GRANDEEE homi..eu tava pricisando di uns exercicios d agilidade e isos ta mi ajudando!!Ta d parabens!

The New Guy
Veterano
# nov/04
· votar



e------------------------------------------------------
B------------------------------------------------------
G------------------------------------------------------
D------------------------------------------------------
A--------5-----------6-----------7-----------8---------
E--5-6-8---8-6-5-6-8---8-6-5-6-8---8-6-5-6-8---8-6-5---

eu uso muito esse exercicio tb!

The New Guy
Veterano
# nov/04 · Editado por: The New Guy
· votar


eu faco isso em todas as cordas...sem parar..=P~

The New Guy
Veterano
# nov/04
· votar


hehe meu irmao ta tocando guitarra...=P~
ele eh scroto...toca desde a minha idade e ja bem rapidao...um poko menos ki u jason becker

The New Guy
Veterano
# nov/04
· votar


Eis algo ki eu soh consigo com anos di treinamento..
pra kem tem Guitar Pro...

http://www.mysongbook.com/tab-tab_download-id_tablature=43061.htm

PabloDiego
Veterano
# nov/04 · Editado por: PabloDiego
· votar


Exercícios para treinar corda solta:
E----------------------------------------------------0----0-5-7------- ------
B-----------------------------------------0----0-5-7------------0----0 -5-7--
G------------------------------0----0-5-7----------------------------- -----0-
D-------------------0----0-5-7---------------------------------------- -------
A--------0----0-5-7--------------------------------------------------- -------
E--0-5-7-------------------------------------------------------------- -------

E-----------------------------------------5-------------------
B-------------------------------------------5-----------------
G----------------------------------0----------0---------------
D-------------------0----------------0----------5-7---0------
A----0---0---0----------5---0----------0------------7-----0-
E--5---7---8------5---7---8------5----------------------5----

Palhetada alternada

e--------------------1234321---------------------------
B----------------1234-------4321-----------------------
G------------1234---------------4321-------------------
D--------1234-----------------------4321---------------
A----1234-------------------------------4321-----------
E1234---------------------------------------4321-------

lembrando de fazer assim
\/ /\ \/ /\
1 2 3 4

\/ = palhetada da mais grossa pra mais fina
/\ = palhetada da mais fina pra mais grossa

Bend

E|-7b8-7b8-7b8-7b8-8b10-
B|----------------------
G|----------------------
D|----------------------
A|----------------------
E|----------------------

Vibrato

E|-------------12-15~
B|----------13-------
G|-------14----------
D|----14-------------
A|-12----------------
E|-------------------

Hammer On

E|-----------------------------
B|-----------------------------
G|----------------------7h9h10-
D|---------------7h9h10--------
A|--------7h8h10---------------
E|-7h8h10----------------------

Pull Off

E|-----------------------------
B|-----------------------------
G|-10p9p7----------------------
D|--------10p9p7---------------
A|---------------10p8p7--------
E|----------------------10p8p7-


Desculpe se repeti algum que já foi postado aqui, não li o tópico inteiro

Agente Smith
Veterano
# dez/04
· votar


Ae, eu ando fazendo esse aqi(ligado/sweep)


e-----------------------3-5p3p1------------------------------
B-----------------1h3h5---------3----------------------------
G---------------3-----------------5p3p1----------------------
D---------1h3h5-------------------------3--------------------
A-------3---------------------------------5p3p1--------------
E-1h3h5---------------------------------------------------


Cae
Veterano
# dez/04
· votar



e------------------------------------------------------
B------------------------------------------------------
G-------------------------------5-7-9----------10-12-14
D-------------------------5-7-9-------10-12-14---------
A-------3-5-7-------5-7-8------------------------------
E-3-5-7-------5-7-8------------------------------------

e----------12-13-15----------15-17-19-20---22--22b-----
B-12-13-15----------15-17-18---------------------------
G------------------------------------------------------
D------------------------------------------------------
A------------------------------------------------------
E------------------------------------------------------


esse eh pra palhetada ta em Am

_ YzY _
Veterano
# dez/04
· votar


|-1-2-2-3-3-4-----|

|-1-2-2-3-3-4-----|

|-1-2-2-3-3-4-----|

|-1-2-2-3-3-4-----|

|-1-2-2-3-3-4-----|

|-1-2-2-3-3-4-----|


esse eh bacana, vai variando ele pra nõa enjoa.

Homem Guitar
Veterano
# dez/04
· votar


abertura dos dedos(velocidade maxima eim

e-----------------------------------------1--24--
B---------------------------------1--24----------
G------------------------1--24-------------------
D-----------------1--24--------------------------
A---------1--24----------------------------------
E--1--24-----------------------------------------

TASIVA
Veterano
# dez/04
· votar


Homem Guitar
eitah uhuheuhehueue

TASIVA
Veterano
# dez/04
· votar



e-----------4-------------------------------------------
B-----------4-------------------------------------------
G-----------4-------------------------------------------
D-----------4-------------------------------------------
A-----------4-----5---0--7---0---7----------------------
E-----------4-------------------------------------------


também baum pra ver se o dedinho estica com a pestana \o/

Kitto
Veterano
# dez/04
· votar


Aqui vai uma palinha de Jason Becker para a galera



e---------------------------------------12---------
B----------------------12---------15--------15-------
G-----------------9-----------12----------------12--
D-----------12------------10------------------------10-----
A------10------------------------------------------------
E--8----------------------------------------------------


e------------------------------------------------------
B--12----------------------------------------------------
G------9------------------------------------------------
D----------12--------------------------------------------
A---------------10---------------------------------------
E------------------------------------------------------


Ivan Baumgartner
Veterano
# dez/04
· votar


Trecho de Crystal Mountain do Death!!!
muito bom como exercicio!!!

e------------------------------------------------17----17-19-
B-----------------17--------------------17-18-----18--------
G-----16-17-19-----17-19-16-17-19-----------------------
D-19----------------------------------------------------------
A-------------------------------------------------------------
E-------------------------------------------------------------

e-20-19-17----17-----------------------------------------
B------------18----18-17-15-17-18-17-15--------15----
G---------------------------------------------16-17----16-
D-----------------------------------------------------------
A-----------------------------------------------------------
E-----------------------------------------------------------

gabriel_coelho
Veterano
# dez/04
· votar


alguem tem algo(apostila, videos, ...) p/ eu conseguir ler os exercícios?¿

vinicius mello
Veterano
# dez/04
· votar


[i][/i][b][/b]Obrigado,vc sabe onde tem escalas pentatonicas e arpejos X7m?

Marcelodeoliveira
Veterano
# jan/05 · Editado por: Marcelodeoliveira
· votar


esse aqui é muito foda, vc tem que ficar apretando as cordas e não tirar os dedos da 2,3e4
<pre>
e-----------------------2-3-4---------------------------
B------------------2-3-4--------------------------------
G-------------2-3-4--------------------------------------
D-------2-3-4--------------------------------------------
A-2-3-4--------------------------------------------------
E-1-1-1-1-1-1-1-1-1-1-1-1-1-1------------------------------


</pre><pre>
e--------------------------1-3-4--------------------------
B--------------------1-3-4--------------------------------
G--------------1-3-4--------------------------------------
D--------1-3-4--------------------------------------------
A--1-3-4--------------------------------------------------
E--2-2-2-2-2-2-2-2-2-2-2-2-2-2-2--------------------------------------


</pre><pre>
e------------------------1-2-4----------------------------
B-------------------1-2-4---------------------------------
G-------------1-2-4---------------------------------------
D--------1-2-4--------------------------------------------
A---1-2-4-------------------------------------------------
E---3-3-3-3-3-3-3-3-3-3-3-3-3-3--------------------------------------

</pre><pre> essa é a pior parte
[T]
e-------------------------1-2-3---------------------------
B--------------------1-2-3--------------------------------
G---------------1-2-3-------------------------------------
D---------1-2-3-------------------------------------------
A---1-2-3-------------------------------------------------
E---4-4-4-4-4-4-4-4-4-4-4-4-4-4--------------------------------------
</pre>

Bettozoa_Lazy
Veterano
# jan/05
· votar


Homem Guitar
To quase conseguino abrir meus dedos até la!
Valeu pelo exercicio...Ta me ajudando muito!
hahahahhaha

Homem Cueca
Veterano
# jan/05
· votar


Isso é muito legal de tocar...vi num vídeo do Van Halen :

e-0000000000000000000000000000000000000000000000000----
B------------------------------------------------------
G------------------------------------------------------
D------------------------------------------------------
A-----------------------h5-h7------------------------------
E-h12h10h8h7-h3-h5-h7h8----------------------------------------------- -


Agente Smith
Veterano
# jan/05
· votar


Homem Cueca velho, acho q o nome dessa musica é Little Guitars, mas num sei se é exatamente assim q éle toca. C viu em video aula?

Homem Cueca
Veterano
# jan/05
· votar


Agente Smith
Em show cara...num é asssim não...é só um exemplo....

Agente Smith
Veterano
# jan/05
· votar


Homem Cueca issae... é "Little Guitars(intro)", cara, mto legal, é com violão erudito. Ae, Qual é o show q c pego?

TASIVA
Veterano
# jan/05
· votar


kkk
corno

Glauber1
Veterano
# fev/05
· votar


olha so seria legal se alguem pudesse reunir estes exercicios e colocar no guitar pro e depois enviar pelo peer2mail

Renan__
Veterano
# fev/05
· votar


esse eu q inventei e gostei mto =] ( eh bem fecinho depois q acostuma )


e-----7h5----------------------------------------------------
B--------7--7h5----------------------------------------------
G--------------7--7h5----------------------------------------
D--------------------7--7h5----------------------------------
A--------------------------7--7h5----------------------------
E--------------------------------7--7h5-----------------------


Homem Cueca
Veterano
# fev/05
· votar


Apelando com tudo oque todos treinatam por aqui!

e-------------------------------------------12-----------
B----------------------------------------13----13----------
G----------------------------------12-14----------12---------
D----------12-14-12-------------14----------------------
A-------------------15-14-12-15--------------------------
E-12-14-15----------------------------------------------

.

e--------12-15-t17p15p12h15t20p15p12----------------
B-----13-----------------------------13---------------
G--12-----------------------------------14-12-11------
D------------------------------------------------------
A------------------------------------------------------
E------------------------------------------------------

.

e-------------------------10-14t15p14p10---------------
B--15-13------------10-12----------------12-10---------
G--------14-12-9-11----------------------------11----
D-------------------------------------------------12---
A------------------------------------------------------
E------------------------------------------------------

.

e------------------------------------------------------
B-----------------------------------------------13-----
G-----------------------------------------12-14--------
D--12-10----------------------12-13-14-15--------------
A--------10----------11-12-13-------------------------
E-----------10-11-12-----------------------------------

.

e--12-14----15-15b(17)--------------------------------
B--------15--------------------------------------------
G------------------------------------------------------
D------------------------------------------------------
A------------------------------------------------------
E------------------------------------------------------


Patience
Veterano
# fev/05
· votar


Alguem vai fazer isso??

spyspys
Veterano
# fev/05
· votar


Ai galera, esses exercicios sao bom para desenvolver a agilidade se tocados com metronomo???
Alguem pode me responder?
Naum aguento mais fikar assim...

rafa_g3
Veterano
# fev/05
· votar


Overdoser
ae..legal essis exercicios...eu so iniciante...vc naum daria umas dicas pra mim????tipo....a gentepoderia tc no msn??? c possivel adiciona eu rafa_monteiro_2004@hotmail.com ...vlw amigoo...

Enviar sua resposta para este assunto
        Tablatura   
Responder tópico na versão original
 

Tópicos relacionados a Relação dos exercícios postados no fórum