Relação dos exercícios postados no fórum

Autor Mensagem
CARZY TRAIN
Veterano
# jul/04
· votar


GOSTEI!!!

Véi Angelo
Veterano
# jul/04
· votar


CARZY TRAIN
CARZY TRAIN
CARZY TRAIN
CARZY TRAIN
HUHEUEHUEHUEHUEHEUHUEHEUHEUHEUHEUE......................EHEUHEUEHUE

aff
Veterano
# jul/04
· votar


Oi!! Alguem saberia me dizer um exercicio pra abrir os dedos do meio... o anelar e o medio??

Agradeço desde ja!!

canilupi
Veterano
# jul/04
· votar


aff


e--------------------------------1-3-5-etc---------------
B--------------------------1-3-5-------------------------
G--------------------1-3-5-------------------------------
D--------------1-3-5-------------------------------------
A--------1-3-5-------------------------------------------
E-1-3-5--------------------------------------------------


Homem Cueca
Veterano
# jul/04
· votar


aff

e------------------------------4-7-10----------------------
B------------------------3-5-8----------------------------
G------------------1-4-6----------------------------------
D------------1-3-6----------------------------------------
A------1-4-6----------------------------------------------
E1-3-6----------------------------------------------------


Deborah Brum
Veterano
# ago/04
· votar


c não tem nenhum exercicio para violão? Se tiver, manda pra darawitch@msn.com

Véi Angelo
Veterano
# ago/04
· votar


Deborah Brum
nem seio :(
mas vo pega teu msn =] \o/
... acho q alguns ae serve para violao tb :)

Maufera
Veterano
# ago/04
· votar


Exercicio bom é esse aí debaixo, voce vai encontrar muito nas musikas, e vai se fuder se nao tiver os dedos soltos e bem abertos, faça isso, devagar primeiro, até arpejar assim:


e--------------------------------3-5-7-----------------
B--------------------------3-5-7-----------------------
G--------------------3-5-7-----------------------------
D--------------3-5-7-----------------------------------
A-------3-5-7------------------------------------------
E-3-5-7------------------------------------------------


Maufera
Veterano
# ago/04
· votar


lol, o canilupi ja tinha postado isso ^^, num vi

Homem Cueca
Veterano
# ago/04
· votar


Maufera
Que músicas???Nem Van Halen faz coisas tão fora assim (fora mas muito bem colocadas e soam bem)
Arpejar???Arpejar o que?

Agente Smith
Veterano
# ago/04
· votar


Exercícios de arpejos em uma corda com ligados


e--12-h-16-h-19-h-21-p-19-p-12-...---------------------
B------------------------------------------------------
G------------------------------------------------------
D------------------------------------------------------
A------------------------------------------------------
E------------------------------------------------------


Tuarelli
Veterano
# ago/04
· votar


Solinho em, se não me engano, diminuta de E:

e-13-12-10---12-10-------10----------------------------------
B---------13-------13-12----13-12-10-13-12-10-9-10---9-------
G--------------------------------------------------12--10-12-
D------------------------------------------------------------
A------------------------------------------------------------
E------------------------------------------------------------

e------------------------------------------------------------
B------------------------------------------------------------
G-9-10----9--------------------------------------------------
D------12---10-12-9-10----9----------------------------------
A----------------------12---10-12-8-10----8------------------
E--------------------------------------12---10-12------------


Arpejo em Am:

e----------------12-17-12------------------------------------
B-------------13----------13---------------------------------
G----------14----------------14------------------------------
D----10h14----------------------14p10------------------------
A-12----------------------------------12---------------------
E------------------------------------------------------------


Exercício de ligadura:

e15p13p12----------13p12p10---------12p10p8---------10p8p7---
B---------15p13p12----------13p12p10--------12p10p8----------
G------------------------------------------------------------
D------------------------------------------------------------
A------------------------------------------------------------
E------------------------------------------------------------

e--------8p7p5-----------------10h12h13----------12h13h15----
B-10p8p7-------8p6p5--10h12h13----------12h13h15-------------
G------------------------------------------------------------
D------------------------------------------------------------
A------------------------------------------------------------
E------------------------------------------------------------


Aqui vão alguns licks/solos de blues:

e-------5----------------------------------------------------
B-----5---8p5------------------------------------------------
G-7b9---------7p5--------------------------------------------
D-----------------7p5h7~-------------------------------------
A------------------------------------------------------------
E------------------------------------------------------------

e----5-------------------5-------5---------------------------
B-s5---5-------------------5-8b~-5---------------------------
G--------5h6------5-7-7b---------6---------------------------
D------------7-s7--------------------------------------------
A------------------------------------------------------------
E------------------------------------------------------------

e------------------------------------------------------------
B------------------------------5-7---------------------------
G----------------------------5-------------------------------
D---7-----7----7-----------6---------------------------------
A-s7--7-6--6-5--5-4--5-6-7-----------------------------------
E------------------------------------------------------------


Depois eu posto mais.

Agente Smith
Veterano
# set/04
· votar


 esse é de salto de casas

e-----------------------------------------------1-2-3-4---
B---------------------------------------5-6-7-8-----------
G----------------------------9-10-11-12-------------------
D-----------------9-10-11-12------------------------------
A---------5-6-7-8-----------------------------------------
E-1-2-3-4-------------------------------------------------




 tremolo

e------------------------------------------------------
B------------------------------------------------------
G-------------------------------------------------...--
D------------------------------------------------------
A-------------------------1-1-1-2-2-2-3-3-3-4-4-4------
E-1-1-1-2-2-2-3-3-3-4-4-4------------------------------

ae homem cueca, ouve o solo de "...and cradle will rock", se não me engano, o vh usa esse tipo de padrão 1 3 5

Agente Smith
Veterano
# set/04
· votar


Mais uns exercícios de tapping, e tem uns que usam 2 dedos da mão direita para fazer taping


Exercícios de tapping

Tapping I

E|--------------------
B|--------------------
G|--------------------
D|----------------...-
A|--------t12p5h9-----
E|-t12p5h9------------

Tapping II

E|--------------------------------------
B|--------------------------------------
G|--------------------------------------
D|----------------------------------...-
A|---------------t12p0h3h7t12p7p3p0-----
E|-0h3h7t12p7p3p0-----------------------
---3x---- ---3x-----

Tapping III

E|----------------------------------------------
B|----------------------------------------------
G|-t12p5h8t12p5h8t12p4h7t12p4h7t12p3h6t12p3h6...
D|----------------------------------------------
A|----------------------------------------------
E|----------------------------------------------

Tapping IV(T=dedo do meio,t=indicador)

E|-T12p5h8----------|T14pt12p7p5p4h5h7t12T14...|
B|------------------|--------------------------|
G|---------t12p5h8--|--------------------------|
D|------------------|--------------------------|
A|------------------|--------------------------|
E|------------------|--------------------------|


Tapping V

E|-h5h8p5h8t12/15....|T12/14p-8-T12/14p-7-T12/14p-6...2~-
B|-------------------|-----------------------------------
G|-------------------|t12/14p-8-t12/14p-7-t12/14p-6...2~-
D|-------------------|-----------------------------------
A|-------------------|-----------------------------------
E|-------------------|-----------------------------------

Tapping VI

E|-12p0h5t12p0h3t12p0h2...-
B|-------------------------
G|-------------------------
D|-------------------------
A|-------------------------
E|-------------------------

Tapping VII

E|-h3h5h7t12p7p5p3h5h7t12....-
B|----------------------------
G|----------------------------
D|----------------------------
A|----------------------------
E|----------------------------


vinsanity
Veterano
# set/04
· votar


esse aqui é o seguinte... só se usam as casas 5 e 6, e só dois dedos... no inicio faça o mais facil... tudo que for da casa 5, vc toca com o dedo 1, e tudo que for da casa 6 vc toca com o médio... mas não pode soltar o dedo da casa depois que vc tocou... é pra ir alongando...
depois usa os dedos 2 e 3, para as casas 5 e 6 respectivamente, e depois os deedos 3 e 4...


5-6-5---5---5---5---5-------------------------------------6---6---6--- 6---6-5-6-

------6-----------------5-----------------------------6--------------- --5-------
----------6-----------------5---------------------6-----------------5- ----------
--------------6-----------------5-------------6-----------------5----- ----------
------------------6-----------------5-----6-----------------5--------- ----------
----------------------6---6---6---6---6-5---5---5---5---5------------- ----------


Homem Cueca
Veterano
# set/04
· votar


vinsanity
interessante...Parece um olho de máscara o formato desse exercício.

Overdoser
Veterano
# set/04
· votar


postem mais licks ai...

Paulo_anoxia
Veterano
# set/04
· votar



e-----------5h6p5--------------------------------------
B----------7-----7-------------------------------------
G---------6-------6------------------------------------
D-----5-7----------7-5~~-------------------------------
A------------------------------------------------------
E------------------------------------------------------


Agente Smith
Veterano
# set/04
· votar



e------------------------9---------------9--------------
B-------7h10p7---7h10p10---10p7---7h10p7---7p10---------
G-----9--------9----------------9-------------------------
D------------------------------------------------------
A------------------------------------------------------
E------------------------------------------------------


Homem Cueca
Veterano
# set/04
· votar



e------------------------------------------------------
B------------------------------------------------------
G----------------------------------------------------
D-------------------------------------12-14-16-14-12-------
A----------12----------------12-14-15------------------
E-12-14-15----15-14-12-14-15---------------------------

.

e----------------------------------------12h15h17t20p17----
B-------------------------------------13-----------------
G-------------12-14-16-14-12-14-12-14--------------------
D-14-12-14-16------------------------------------------
A------------------------------------------------------
E------------------------------------------------------

.

e-p15p12----------12-14-15-14-12----14-12-------12--------
B--------15-12-15----------------15-------15-13----15-----
G------------------------------------------------------
D------------------------------------------------------
A------------------------------------------------------
E------------------------------------------------------

.

e----------------------------------------12-14-15-17b(19)--
B-13-12-15-13-12----13-12-------12-13-15------------------
G----------------14-------14-12-----------------------------
D------------------------------------------------------
A------------------------------------------------------
E------------------------------------------------------


bart14
Veterano
# out/04
· votar


cara eu naum fasso nada disso, eu pego a musica e aplico a pentatonica e boa, tipow, na musica hey joe do jimmy eu aplico a penta de Em/G .............

Agente Smith
Veterano
# out/04
· votar


bart14 mas vc so fica fazendo melodias? Num ficamto legal se vc não tocar uns licks dahora. Vc deve até usar um lick e nem sabe

Peter_Kurt
Veterano
# out/04
· votar


Esse é para aumentar a velocidade da mão direita, segurando a pestana na 1ª casa digite as seguites notas:
[T]
e---1-2-3-4----2-3-4-5----3-4-5-6--------------------------
B---1-2-3-4----2-3-4-5----3-4-5-6--------------------------
G---1-2-3-4----2-3-4-5----3-4-5-6--------------------------
D---1-2-3-4----2-3-4-5----3-4-5-6----depois-volte----------
A---1-2-3-4----2-3-4-5----3-4-5-6--------------------------
E---1-2-3-4----2-3-4-5----3-4-5-6--------------------------
tem que segurar a casa um inteira e fazer a digitação com os dedos médio, anular e mínimo

Homem Cueca
Veterano
# out/04
· votar


Peter_Kurt
Esse exercício não tem nada pra aumentar a velocidade da palhetada.
Só tem pra Aumentar a força dos dedos nas pestanas.

Sassu
Veterano
# out/04
· votar


Esse exercício é muito bom para aquecer, e é quebra-dedo (Eu fiz ele por uns 20 segundos e minha mão ficou morna)


e--------------------------------3h5h7-----------------
B--------------------------3h5h7-----------------------
G--------------------5h7h9-----------------------------
D--------------5h7h9-----------------------------------
A--------3h5h7-----------------------------------------
E--3h5h7-----------------------------------------------

e---3h5h7----------------------------------------------
B---------3h5h7----------------------------------------
G---------------5h7h9----------------------------------
D--------------------5h7h9-----------------------------
A--------------------------3h5h7-----------------------
E--------------------------------3h5h7-----------------

angus junior
Veterano
# out/04
· votar


Sassu
bom msm

august22
Veterano
# out/04
· votar


ateh q enfim achei um forum legal!!
Congratulations!!

slash_sp
Veterano
# out/04 · Editado por: slash_sp
· votar


EXERCÍCIO DE SALTO DE CORDA


e-----------------------------------------------------------
B-----------------------------------------------7-8-9-10----
G-----------------------------7-8-9-10----------------------
D-----------7-8-9-10-------------------7-8-9-10-------------
A--------------------7-8-9-10-------------------------------
E--7-8-9-10-------------------------------------------------



e-----------7-8-9-10--10-9-8-7------------------------------
B--7-8-9-10-----------------------------10-9-8-7------------
G------------------------------10-9-8-7---------------------
D------------------------------------------------10-9-8-7---
A-----------------------------------------------------------
E-----------------------------------------------------------



e-----------------------------------------------------------
B-----------------------------------------------------------
G--10-9-8-7-------------------------------------------------
D---------------------10-9-8-7------------------------------
A-----------10-9-8-7----------------------------------------
E------------------------------10-9-8-7---------------------


ValDeRRaMa
Veterano
# out/04
· votar


Overdoser
Iniciativa do caralho!!!!
VLW ai cara!! e a tds q tb tao contribuindo com exercicios!!
Vou começar a engolir esses exercicios!! hehehehehe
To precisando mesmo mt disso!!

FLW! ABRAÇAO!!

Marcelo Alonso Gouveia
Veterano
# out/04
· votar


vlw pelas dicas e tecnicas

Enviar sua resposta para este assunto
        Tablatura   
Responder tópico na versão original
 

Tópicos relacionados a Relação dos exercícios postados no fórum