Relação dos exercícios postados no fórum

Autor Mensagem
Homem Cueca
Veterano
# abr/04
· votar


slashroots
certo.....mas quem vai gravar?
quem temum servidor pra colocar tudo?

slashroots
Veterano
# abr/04
· votar


como assim???Pow alguém cria uma hpg sei lah pow...aí põe arquivos de gp...tp no www.mysongbook.com só q lá são as MÚSICAS em gp

mr bean
Veterano
# mai/04 · Editado por: mr bean
· votar


para as tablaturas ficarem alinhadas
é so vc colocar na fonte Courier New pois todos os caracteres dela tem o mesmo tamanho ai fica bem facil ver!

babirondo
Veterano
# mai/04
· votar


Olha esse riff q eu criei


e------------------------------------------------------
B------------------------------------------------------
G------------------------------------------------------
D--------------------------------3-6-3-----------------
A---3-4~--------x-x--3h.a.---3-5-------5-3-------------
E-3-------1-2-4-x-x------------------------3~----------


Eh soh repetir esse riff umas vezes com distorção.


Me deem seus comentarios

WebGuitar
Veterano
# mai/04
· votar


aeeeeeee!!!!!!! votem em cassio!!!!!! www.blogdosfeiosfelizes.blogger.com.br e em troca, se eu ganhar, vcs terao a continuaçao de um site meu q ta parado: www.melhoresguitarristas.blogger.com.br

marcio_zav
Veterano
# jun/04
· votar





E||--------------------------------4-|--4-3--------------------------- --|
B||------------------------4-----3---|------2---4-3------------------- --|
G||----------------4-----3---1-2-----|--------1-----2---4-3----------- --|
D||--------4-----3---1-2-------------|----------------1-----2---4-3--- --|
A||------3---1-2---------------------|------------------------1-----2- --|
E||--1-2-----------------------------|-------------------------------- 1-|
v ^ ^ ^ v ^ ^ ^ v ^ ^ ^ v ^ ^ ^ ^ v v v ^ v v v ^ v v v ^ v v v


E|--------------------------------1-|--1-2---------------------------- -||
B|------------------------1-----2---|------3---1-2-------------------- -||
G|----------------1-----2---4-3-----|--------4-----3---1-2------------ -||
D|--------1-----2---4-3-------------|----------------4-----3---1-2---- -||
A|------2---4-3---------------------|------------------------4-----3-- -||
E|--4-3-----------------------------|--------------------------------4 -||
v ^ ^ ^ v ^ ^ ^ v ^ ^ ^ v ^ ^ ^ ^ v v v ^ v v v ^ v v v ^ v v v



eu q fiz......

Homem Cueca
Veterano
# jun/04
· votar


Exercicio Palhetada Alternada:

e-15-14-12----------------12----------------12-14-15------
B----------15-14-12-14-15----15-14-12-14-15---------------
G------------------------------------------------------
D------------------------------------------------------
A------------------------------------------------------
E------------------------------------------------------

.

e-14-12------------------------------------------------
B-------15-14-12-15-14-12----------------12-------------
G-------------------------14-12-11-12-14----14-12-11---------
D------------------------------------------------------
A------------------------------------------------------
E------------------------------------------------------

.


e------------------------------------------------------
B-------12-14-15-14-12---------------------------------
G-12-14----------------14-12-11-14-12-11---------------
D----------------------------------------14-12-11-12--------
A------------------------------------------------------
E------------------------------------------------------

.

e------------------------------------------------------
B------------------------------------------------------
G----11----------------11-12-14-12-11----------------
D-14----14-12-11-12-14----------------14-12-11--------
A-----------------------------------------------------
E------------------------------------------------------

.

e------------------------------------------------------
B------------------------------------------------------
G------------------------------------------------------
D-14-12-11----------------11----------------11-12-14-12-11--
A----------14-12-10-12-14----14-12-10-12-14--------------
E------------------------------------------------------

.

e------------------------------------------------------
B------------------------------------------------------
G------------------------------------------------------
D------------------------------------------------------
A-14-12-10-14-12-10----------------10--------------------
E-------------------14-12-10-12-14----14-12-10-12-14-----

.

e------------------------------------------------------
B------------------------------------------------------
G------------------------------------------------------
D------------------------------------------------------
A-10-12-14-12-10---------------------------------------
E----------------14-12-10-14-12-10-12-10-9-10-9-7~~----
~
fazer em fusas!

flpmartin321
Veterano
# jun/04
· votar


Homem Cueca
aqeule que vc me passou do gt pro eh muito bom

Homem Cueca
Veterano
# jun/04 · Editado por: Homem Cueca
· votar


flpmartin321
aquele primeiro exercicio em fusa eh esse ai q eu postei acima soh q esse q postei eh a continuação daquele exercicio...vlw!

Gustavo Rhoads
Veterano
# jun/04
· votar


alguem sabe tocar crazy train Ozzy e Randy Rhoads?

Homem Cueca
Veterano
# jun/04
· votar


eu

marcio_zav
Veterano
# jun/04
· votar


eu tb

Agente Smith
Veterano
# jun/04 · Editado por: Agente Smith
· votar


Exercício de 2 hands


e------------------------------------------------------
B------------------------------------------------------
G------------------------------------------------------
D------------------------------------------------------
A------------------------------------------------------
E-t20p12h15 t19p12h15p12 t18p15p12 t17p15p12h15 -------


Sempre alternando entre esses quatro padroes.Qndo vc chegar a casa 16 com taping, a mão esquerda fara p5h7, e qndo o tapping chegar na casa 8, a mão esquerda fara p1h4.Fazer em todas as cordas.Procure trabalhar lentamente, mas com força, melhor ainda se fizer o tapping com o dedo 1 da mão, procurando deixar o dedão preso ao lado da escala, assim tambem os dedos 3 e 4, e com o 2 , segure a p[alheta contra a palma da mão, assim treina mais a fortça de seu tapping

guitarist from hell
Veterano
# jun/04 · Editado por: guitarist from hell
· votar


esses exercicios do PAUL fucking GILBERT são os melhores q eu ja vi na minha vida:


fica repetindo isso...é um ótimo lick
"12 14 16" = hammer-ons
"16 14 12" = puff-offs


e---------------12----------------------14-----------------
B------12-14-16----16-14-12----12-14-16----16-14-12--------
G--14-----------------------14----------------------14-----
D----------------------------------------------------------
A-----------------------------------------------------------E--------- --------------------------------------------------


guitarist from hell
Veterano
# jun/04
· votar


aff...q bagunça q fico

guitarist from hell
Veterano
# jun/04 · Editado por: guitarist from hell
· votar


putz

Homem Cueca
Veterano
# jun/04
· votar


com certeza...os exercicios do Paul Gilbert e do John Petrucci são os melhores...os exercicios do paul gilbert são mto elaborados e criativos

guitarist from hell
Veterano
# jul/04
· votar


MICHAEL ANGELO


e--------------------------------------------------------
B--------------------------------------------------------
G-------------11-12-14-12-11----12-11-------11-----------
D----11-12-14----------------14-------14-12----14-12-11--
A--------------------------------------------------------
E--------------------------------------------------------


guitarist from hell
Veterano
# jul/04
· votar



e--------------------12-14-15-14-12--------------------
B-----------12-14-15----------------15-14-12-----------
G--12-14-15----------------------------------15-14-12--
D------------------------------------------------------
A------------------------------------------------------
E------------------------------------------------------


Homem Cueca
Veterano
# jul/04
· votar


gutarrist from hell
MICHAEL ANGELO

e----------15-17-18-----------------------------------
B-15-17-18----------15-17-18----------15-17-18--------------
G----------------------------14-15-17----------14-15-17---
D------------------------------------------------------
A------------------------------------------------------
E------------------------------------------------------

.

e------------------------------------------------------
B------------------------------------------------------
G----------14-15-17------------------------------------
D-14-15-17----------14-15-17----------14-15-17-------------
A----------------------------13-15-17----------13-15-17----
E------------------------------------------------------

.

e------------------------------------------------------
B------------------------------------------------------
G------------------------------------------------------
D---------------------------------------------17-15-14-------
A-----------13-15-17-15-13-----------17-15-13---------------
E--13-15-17-----------------17-15-13------------------------

.

e------------------------------------------------------
B----------------------------------------------18-17-15----
G-------------------17-15-14----------17-15-14-------------
D----------17-15-14----------17-15-14---------------------
A-17-15-13------------------------------------------------
E------------------------------------------------------

.

e--------------------18-17-15----------18b(20)------------
B-----------18-17-15----------18-17-15--------------------
G--17-15-14--------------------------------------------------
D------------------------------------------------------
A------------------------------------------------------
E------------------------------------------------------


Bruttall
Veterano
# jul/04
· votar


Ae uma coisa q me fez melhorar o rendimento em 100% foi treinar os exercicios q eu arrumasse no violão com corda de aço....pois seus dedos ficam mais fortes e exigem mais treino para pegar os exercicios.....depois q estiver bom nos exercicios peguem e faça-os na guitarra....vcs verão a grande diferença....

PS: todo mundo jah deve saber diso aoiuahoaihaoihaoahiao

The Blue Special Guitar
Veterano
# jul/04 · Editado por: The Blue Special Guitar
· votar


Uns exercícios que o professor passou para aquecimento:
<pre>
e---------------------2-4--------------------------------
B-----------------1-3------------------------------------
G-------------2-4----------------------------------------
D---------1-3--------------------------------------------
A-----2-4------------------------------------------------
E-1-3----------------------------------------------------
</pre>


<pre>
e---------------------1-3--------------------------------
B-----------------2-4------------------------------------
G-------------1-3----------------------------------------
D---------2-4--------------------------------------------
A-----1-3------------------------------------------------
E-2-4----------------------------------------------------
</pre>


<pre>
e----------------------1-4-------------------------------
B------------------2-3-----------------------------------
G--------------1-4---------------------------------------
D----------2-3-------------------------------------------
A------1-4-----------------------------------------------
E--2-3---------------------------------------------------
[/T^


Eólia Cm
[T]
e------------------------------------------------------
B--------------------------1-3-4--------------------------
G--------------------1-3-4--------------------------------
D----------------1-3-------------------------------------
A---------1-2-4-------------------------------------------
E--1-2-4--------------------------------------------------
</pre>



C/Am na Penta

<pre>
e---------------------1-4--------------------------------
B-----------------1-3------------------------------------
G-------------1-3----------------------------------------
D---------1-3--------------------------------------------
A-----1-4------------------------------------------------
E-1-4----------------------------------------------------
</pre>

<pre>
e----------------------2-4-------------------------------
B------------------2-4-----------------------------------
G--------------1-4---------------------------------------
D----------1-4-------------------------------------------
A------2-4-----------------------------------------------
E--2-4---------------------------------------------------
</pre>


G de Blues

<pre>
e--------------------------1-4---------------------------
B--------------------1-2-3--------------------------------
G----------------1-3-------------------------------------
D----------1-3-4------------------------------------------
A------1-4-----------------------------------------------
E--1-4---------------------------------------------------
</pre>


Basicamente isso, para iniciantes.
Quem tiver mais alguns exercícios da escala penta poste aí!

guitarist from hell
Veterano
# jul/04
· votar


The Blue Special Guitar, ja tem um topico de escalas

Reinaldo Camargo Filho
Veterano
# jul/04
· votar


Michael Ângelo


e------121712------121712-------172217------121712------
B----15------15--15------15---15------15--15------15---
G--14----------14-----------14----------14----------15-
D------------------------------------------------------
A------------------------------------------------------
E------------------------------------------------------



e-----121812------121812------121812------121812-------
B---15------15--15------15--15------15--15------15-----
G-15----------15----------15----------15----------15---
D------------------------------------------------------
A------------------------------------------------------
E------------------------------------------------------



e------101510------101510------121812------------------
B----11------11--11------11--15------15----------------
G--12----------12----------12----------12-Repete Tudo
D-----------------------------------------Só que assim
A------------------------------------------------------
E------------------------------------------------------



e------121712------121712------172217------------------
B----15------15--15------15--18------18----------------
G--14----------14----------19----------19--------------
D----------------------------------------19------------
A------------------------------------------2017--------
E------------------------------------------------------


Tem mais detalhes mas vai dar trabalho postar aqui hehe :p

É provável que tenha alguns erros mas foi assim que eu tirei, outra observação eu não faço o hammer e pull off do arpeggio eu não consigo direito, só consigo dando palhetada mesmo. :\

Homem Cueca
Veterano
# jul/04
· votar


Reinaldo Camargo Filho
no Boundaries RLZ!

Reinaldo Camargo Filho
Veterano
# jul/04
· votar


Homem Cueca


Rlz mesmo, eu não consigo fazer os tappings do final aí eu acabo fazendo que nem na versão do vídeo, que ele fica botando a mão por cima e por baixo hehe. :p

guitarist from hell
Veterano
# jul/04
· votar


Reinaldo Camargo Filho, eu faço isso tb.
claro q no na mesma velocidade :p...faço so na corda e, se eu subir eu misturo tudo

Reinaldo Camargo Filho
Veterano
# jul/04
· votar


guitarist from hell

Hehehe... :)

Se você reparar na segunda versão do vídeo speed kills, aquela Speed Lives, ele faz isso bem mais devagar, acho que é a idade. :p

Ice Bergh
Veterano
# jul/04
· votar


Tem mais detalhes mas vai dar trabalho postar aqui hehe :p

É provável que tenha alguns erros mas foi assim que eu tirei, outra observação eu não faço o hammer e pull off do arpeggio eu não consigo direito, só consigo dando palhetada mesmo. :\


c faz isso com sweeping??
+ c vc for fazer palhetando...
vc perde bastante tempo...ou isso eh só comigo?:
eu prefiro martelar pq meus dedos eh + rapido q as palhetadas...

tenho q treinar + palhetada alternada..

Reinaldo Camargo Filho
Veterano
# jul/04
· votar


Ice Bergh

Eu palheto pq eu tenho mais agilidade com a palheta, mas hoje eu fiquei treinando e consegui fazer martelando também, mas é que com a palheta parece que o som fica mais claro, sei lá, é questão de gosto.

Enviar sua resposta para este assunto
        Tablatura   
Responder tópico na versão original
 

Tópicos relacionados a Relação dos exercícios postados no fórum