Vejam, toquem e comentem: tirei 1 música d ouvido,

    Autor Mensagem
    Walker
    Veterano
    # set/03


    Olha só pessoal: eu tirei uma parte (solo) de uma música de ouvido, eu acho que tá bem parecido, vcs poderiam tocar e me dizerem o que acharam... pra min seria importante suas opiniões. A música (solo) é do No Doubt- Dont´Speak.

    e-----------4----------------------------------
    B-0--4---6-----6-------------------------------
    G------------------4---6-----------7-----------
    D-------------------------5---7----------------
    A----------------------------------------------
    E----------------------------------------------
    Não tirei o solo todo, só esse pedaço que é o começo do solo. Tá parecido ou eu estou viajando?

    Dave Murray
    Veterano
    # set/03
    · votar


    pow ateh tokava pra vc..mas n sei o ritmo..

    Walker
    Veterano
    # set/03
    · votar


    isso q é foda...vc teria q ter a música pra ouvir...

    guschard
    Veterano
    # set/03
    · votar


    qse isso


    |-----------3---------------|
    |-------4-6---6---3---------|
    |-----5-------------3-------|
    |-----------------------5-6-|
    |---------------------------|
    |---------------------------|



    ------------------------|-----------3---------------|
    ------4--6-8-6---8------|-------4-6---6---3---------|
    ----5-------------------|-----5-------------3-------|
    ------------------------|-----------------------5-6-|
    ------------------------|---------------------------|
    ------------------------|---------------------------|



    ----------3-4-3-4-6---4-3------|-----------8--10--11--10h11h10-8-10--- -8------|
    --------4-----------------6----|---------8--------------------------11 ---8-11-|
    ------5------------------------|-------8------------------------------ --------|
    ----x--------------------------|----10-------------------------------- --------|
    -------------------------------|-------------------------------------- --------|
    -------------------------------|-------------------------------------- --------|



    ------------------------------------|--------------------------------- ---------|
    -----8------8--9--11--9-11h9-8------|--------------------------------- ---------|
    --10---8-10-------------------------|--------------------------------- ---------|
    ------------------------------------|-----------------------------8-10 --8------|
    ------------------------------------|-------------8-10----8-10-11----- -----11--|
    ------------------------------------|-----8-10-11------11------------- ---------|



    -------------------------|------------------|------------------|
    -------------------------|------------------|------------------|
    -------------------------|------------------|------------------|
    -------------------------|------------------|------------------|
    --10-11-10---------------|------------------|------------------|
    -------------------------|------------------|------------------|


    Walker
    Veterano
    # set/03
    · votar


    guschard
    Valeu...passei perto...fica pra próxima!

    guschard
    Veterano
    # set/03
    · votar


    foi perto
    continua treinando q vc consegue

    fred_d_rocker
    Veterano
    # out/03
    · votar


    ou eu tirei uma de ouvido esses dias só de acordes...
    A música é a Boys don't cry do the cure e o que eu tirei foi
    tipo isso aki: A Bm C#m D (a música inteira)
    essa música eh desse jeito mess??

    Dieselboy
    Veterano
    # out/03
    · votar


    fred_d_rockertem uma parte q muda:tem aquela parte assim:
    e f#m
    misjugded you limits

    fred_d_rocker
    Veterano
    # out/03
    · votar


    Dieselboy
    Valews kra eu vi aki e é isso mess...
    Mas como dizem "a primeira vez ninguém esquece" :)

      Enviar sua resposta para este assunto
              Tablatura   
      Responder tópico na versão original
       

      Tópicos relacionados a Vejam, toquem e comentem: tirei 1 música d ouvido,