Não consigo tocar rápido

Autor Mensagem
Fernando de almeida
Veterano
# fev/06


Aí galera, preciso da ajuda de vocês.

Sou trompetista de formação e guitarrista de coração.

Meu primeiro contato com a guitarra foi quando eu a usava somente para facilitar escrever algumas harmonias para músicas da minha banda instrumental de jazz. Sabia o básico acordes maiores e menores e sabia indentificar as notas no braço da guitarra (com isso até adiantava as cifras e tablaturas para o guitarrista da banda).

De tanto contato peguei gosto pelo instrumento, logo, pesquisando, aprendi mais vários tipos de escalas e acordes diferentes, pentas, técnicas, etc.

Em fim acabei montando uma banda de heavy metal, onde eu sempre fiz a base (pesada, dedilhado, ligth, etc) e alguns solos simples enquanto o outro guitarrista fazia quase todos os solos (porque o cara é bom mesmo).

Há uns 8 meses o guitarrista saiu da banda e a parte da guitarra sobrou pra mim. Tenho estudado, mas não consigo tocar rápido, nem as escalas mais simples e não consigo fazer harpejos, e olha que eu estudo bastante palhetada sweep.

Quando eu tento tocar um pouco mais rápido do que eu consigo parece que a mão direita e a mão esquerda saem de sincronia, ou eu mudo a nota com a esquerda mais rápido que a palhetada ou eu palheto mais rápido do que mudo a nota, é sempre uma mão correndo atrás da outra.

Gostaria de sugestões de exercícios para eu conseguir sanar esse problema.

JB_
Veterano
# fev/06 · Editado por: JB_
· votar


um bom exercicio pra sincronizar eh fazer escalas em uma corda soh, com o metronomo, tipo isso aqui

e|--5-7-8-10-7-8-10-12-8-10-12-13-10-12-13-15---|
e depois volta


marcelogatinho
Veterano
# fev/06
· votar


Nao tem magica o lance é estudar com atençao, faça bastante cromatismo e pratique as escalas, naum se preocupe em tocar rapido mas sim em tocar certinho , com o tempo a velocidade vem, outra coisa toke relachado e naum tensionado. Boa sorte

skolnick
Veterano
# fev/06
· votar


marcelogatinho
Vc acha que tokar tensionado diminui mto o aproveitamento?
Como vc faz para conseguir relaxar no treino??
Pergunto isso pq eu sou mto tenso e estou tentando controlar!

Valeu!

JB_
Veterano
# fev/06
· votar


skolnick
vc naum pode forçar os musculos, tem q deixar eles relaxados, sem fazer força

Fernando de almeida
Veterano
# fev/06
· votar


JB_
Como vou saber se é a hora de aumentar a velocidade??????

Midgard
Veterano
# fev/06
· votar


Cara treino eh tudo :) O q eu vou te aconselhar eh treinar com o metronomo q seira crucial . Com ele vc vai aumentando a velocidade gradativamente q eh o certo daih soh muito treino e estudo

Fernando de almeida
Veterano
# fev/06
· votar


Midgard
Como vou saber se é a hora de aumentar a velocidade do metronomo??????

iS_LaSh
Veterano
# fev/06
· votar


Fernando de almeida
Passo pelo mesmo problema ... pareco nao ter a msm sincronia nas duas maos na hora de fritar !!! tambem preciso de ajuda!!

JB_
Veterano
# fev/06
· votar


Fernando de almeida
qdo vc estiver tocando com tranquilidade e sem "comer" notas

jNp
Veterano
# fev/06
· votar


po ..
eh isso q falaram
compra/faz download de um metronomo.
bota uma velocidade baixa, e treina... cromaticas q seja.
quando vc fizer de todos os tipos.. casas.... sem comer nota e sem sair do tempo, aumenta a velocidade.
qnto a arpeggios ... tem um lance q eu to treinando agora q eh o lance de abafar pra n ficar sujo. é só ficar ligado na teoria (como fazer pra n ficar embolado/sujo) e treinar pra fazer legal.
espero q consiga.
[]'s

Renato Dell
Veterano
# fev/06
· votar


2 palavraa:
TREINO e PACIÊNCIA

adolfo
Veterano
# fev/06
· votar


alem de fazer os exercicios tire musicas rapidas q vc gosta, q isso ajuda muito (pra pegar jeito com certas digitaçoes)

lobz
Veterano
# fev/06
· votar


bem vindo ao clube

Fernando de almeida
Veterano
# fev/06
· votar


Renato Dell
Já tinha percebido isso!!!!

Fernando de almeida
Veterano
# fev/06
· votar


adolfo
vc pode dar sugestões de músicas????

Fernando de almeida
Veterano
# fev/06
· votar


lobz

bem vindo ao clube

iS_LaSh

Podemos dar um nome a este clube, o que acham???

sugestão : "CLUBE NONFRITATORS"

Espero abandonar o clube logo!!!!!

Renato Dell
Veterano
# fev/06
· votar


sugestão : "CLUBE NONFRITATORS"
CLUBE LERDATORS AND DESCORNATORS também serve

LeandroP
Moderador
# fev/06
· votar


Fernando de almeida

Velocidade é persistência e a prática correta dos exercícios.

Experimente usar o metrônomo num tempo confortável pra estudar.

Desça a escala ou arpejo em colcheias e volte em colcheias. Na segunda vez dobre o tempo, não do metrônomo, mas descendo em semicolcheias.

Procure tocar duas vezes a primeira e aúltima nota do exercício pra sincronizar melhor.


e--------------3-6-6-3---------------------------------
B------------4---------4-------------------------------
G--------3-5-------------5-3---------------------------
D------5---------------------5-------------------------
A--3-6-------------------------6-3-3-------------------
E------------------------------------------------------

Arpejo em Cm7 - sobe e desce em colcheias e depois sobe e desce em semicolcheias.


Fernando de almeida
Veterano
# fev/06
· votar


LeandroPanucci
Excelente exercício!!! Se vc tiver mais alguma sugestão eu agradeço!!!

Fernando de almeida
Veterano
# fev/06
· votar


Renato Dell


sugestão : "CLUBE NONFRITATORS"
CLUBE LERDATORS AND DESCORNATORS também serve



Huahuahuahuahuahuahuahuahua

LeandroP
Moderador
# fev/06
· votar


Fernando de almeida

Um outro exercício legal é usando saltos de intervalos.

Ao invés de executar uma escala em seqüência, procure tocar "pulando" a próxima nota por exemplo.


e----------------------------------------------------------
B----------------------------------------------------------
G----------------------------------------------------------
D--------------------4---5-4-7-5- continua a próxima oitava
A--------3---5-3-7-5---7-----------------------------------
E--3-7-5---7-----------------------------------------------

Escala de G maior (G7M) em saltos de 3as diatônicas.


LeandroP
Moderador
# fev/06
· votar


Dentro deste mesmo exercício, você pode repetir a mesma nota, tocando em semicolcheias.


e------------------------------------------------------
B------------------------------------------------------
G------------------------------------------------------
D--------------------------------------4-4----- etc ---
A--------------3-3-----5-5-3-3-7-7-5-5-----7-7---------
E--3-3-7-7-5-5-----7-7---------------------------------


Midgard
Veterano
# fev/06
· votar


Fernando de almeida

toque umas 10 vezes cada exercicio dentro de um tempo depois aumente a velocidade em um metronomo, mas nao muito

Alex_Guitar
Veterano
# fev/06 · Editado por: Alex_Guitar
· votar


Fernando de almeida
Se me permite, vou escrever um aqui feito em cima de escala que também desenvolve muito quando estudade com dedicação.:

Pegue uma escala como por exemplo: G maior (modo jônio) e começanco em G toque quatro notas, volte para a segunda nota (no caso A) e toque mais quatro adiante. Volte para a terceira (no caso B) e toque mais quatro adiante e etc...
Sempre alternando a palhetada mesmo na mudança de cordas.


e------------------------------------------------------
B------------------------------------------------------
G------------------------------------------------------
D--------------------------------4-----4-5--etc--------
A-------3-----3-5---3-5-7-3-5-7----5-7-----------------
E-3-5-7---5-7-----7------------------------------------






Outro ótimo exercício para adquirir velocidade também é um da vídeo-aula do John Petrucci:


e------------------------------------------------------
B------------------------------------------------------
G----------------------------4-5-6-7-8-7-6-5-6-7-8-9---
D-------------------4-5-6-7----------------------------
A----------4-5-6-7-------------------------------------
E--4-5-6-7---------------------------------------------


Cont...

e---------6-7-8-9-10-9-8-7-----------------------------
B-6-7-8-9------------------10-9-8-7--------------------
G-----------------------------------10-9-8-7-----------
D------------------------------------------------------
A------------------------------------------------------
E------------------------------------------------------


Cont...

e------------------------------------------------------
B------------------------------------------------------
G------------------------------------------------------
D-10-9-8-7-6-7-8-9-8-7-6-5-----------------------------
A---------------------------8-7-6-5--------------------
E------------------------------------8-7-6-5-4---------

OBS: Qualquer errinho aí me corrijam porque estou escrevendo às pressas do trampo falou ?

Parece ser meio complicado mas não é. Trata-se apenas de um exercício de palhetada alternada usando uma escala cromática. É bastante fácil. Quando vc. pega o "jeito", vai ver seus dedos "voarem" pelo braço da guitarra.

Mas aquele lembrete de sempre: Estude sempre com metrônomo e vá aumentando a velocidade gradativamente conforme o seu desempenho. Um passo de cada vez...

Espero ter ajudado camarada !
Valeu !

hilarioguitar
Veterano
# fev/06
· votar


po galera tb to nesse clube vcs aconselham fazer os exercícios com uma pedaleira ou com a guitarra pura num amplificador

JB_
Veterano
# fev/06
· votar


hilarioguitar
treina com a guitarra sem distorcao e d vez enquando liga ela pra ve se vc consegue tocar limpo com distorcao, depois volta a treina com o som limpo e assim por diante...

aratohendrix
Veterano
# fev/06
· votar


Tocar sem distorção é um erro na minha opinião, pois eu treinava sem por mto tempo, ai quando ligava a dist. ficava mto sujo.
Comecei a tocar com dist. e a palhetada ficou mais limpa, digo, palhetada e mão esquerda tbm.

Fernando de almeida
Veterano
# fev/06
· votar


LeandroPanucci
Já estou exercitando Obrigado!!!!

Fernando de almeida
Veterano
# fev/06
· votar


Alex_Guitar

Se me permite, vou escrever um aqui feito em cima de escala que também desenvolve muito quando estudade com dedicação.:

Não precisa de permissão brow, fique a vontade!!!!

Enviar sua resposta para este assunto
        Tablatura   
Responder tópico na versão original
 

Tópicos relacionados a Não consigo tocar rápido