ja não era hora???

    Autor Mensagem
    Gu Borges
    Veterano
    # mar/05


    galera, não sei to mt apressado... tpow. toqco a 2 anos... e nao tenho velocidade nem uma... lógico, evidente que eu sei q o negocio é treinar, e estes meses tava meio parado por causa do trabalho e escola... mas tipo. nesse meio tempo ja era pra eu ter uma certa velocidade vcs nao acham... tipo. os exercios que eu faco, ja naum me satisfas...
    vcs podem postar um exercicios particulares teus ai, bom para velocidade e para o desenvolvimento do didim , tipo, nem dianta dizer pra eu ir ao topico de exrcicios, ja rodei akilo la td. queria uns particulares teus ai, q houve resultado com vcs...


    vlws.....

    =]

    Marco_Uber_Alles
    Veterano
    # mar/05
    · votar


    eu fiz um troço pro guitar pro cheio de exercícios, tu quer?

    Gu Borges
    Veterano
    # mar/05
    · votar


    Marco_Uber_Alles
    pode ser kra..
    seria de grande ajuda.


    ae meu msn. guga_skider@hot...

    Rowashburn
    Veterano
    # mar/05
    · votar


    Olha cara, esse exercício é fera!!!

          (1)              (1)
    
    e---------4----------------4-----------------------------
    B------------5--6-------------6--5-------------------------
    G------------5--6-------------6--5-------------------------
    D------------5--6-------------6--5-------------------------
    A------------5--6-------------6--5-------------------------
    E------------------7----------------7--------------------
    (4) (4)

    o Esquema desse exercício, é vc manter o dedo 1 na quarta casa, e o dedo 4 na 7° casa, daí com os dedos 2 e 3 , vc faz a sequência 5,6,nas outras cordas, sem retirar os dedos 1 e 4 dos seus lugares!!! Tipo, vc palheta só pros dedos 2 e 3....

    Gu Borges
    Veterano
    # mar/05
    · votar


    Rowashburn
    legal..

    mas alguem ai????/
    Marco_Uber_Alles
    kd o exc???

    deathmeister
    Veterano
    # mar/05
    · votar



    e------------------------------------------------------
    B------------------------------------------------------
    G------------------------------------------------------
    D------------------------------------------------------
    A------------------------------------------------------
    E-12-12--12--12-12--------------------------------------------


    O mais rapido que vc puder, ai diminui e aumenta, quase todas as videos aulas de kras q tocam rapido tem exercicio desse tipo.

    Marco_Uber_Alles
    Veterano
    # mar/05
    · votar


    Gu Borges
    hihi

      Enviar sua resposta para este assunto
              Tablatura   
      Responder tópico na versão original
       

      Tópicos relacionados a ja não era hora???