Música Japonesa!!!

    Autor Mensagem
    Doctor Robert
    Veterano
    # nov/04


    Alguém sabe alguns riffs de música japonesa???

    Vi um cara tocando e achei muito massa.

    Se alguém aí souber me passe!!!

    naka
    Veterano
    # nov/04
    · votar


    T 2m 4 5dim 7m <- escalinha do mystical ninja :-)

    Doctor Robert
    Veterano
    # nov/04
    · votar


    Valew naka...
    Se alguém aí tiver mais...

    SoldierOfFear
    Veterano
    # nov/04
    · votar


    Toca só os acidentes que dá certo. hehe

    Hansen
    Veterano
    # nov/04
    · votar


    olha tem uma q se vc pegar dá pra reproduzir na guitarra, é mais ou menos assim:

    chinguililim... chiguililim

    Praxis
    Veterano
    # nov/04 · Editado por: Praxis
    · votar


    cara eu uso muito o modo frigio, tirando a terça e a 7°... ficaria exemplo em B -

    B - C - E - F# - G - B > bom nao eh musica japonesa eh uma escala oriental, ja tirei varias musicas orientais usando esta escalinha, inclusive uma do Nintendo 8bits legend of kage ehehehe!

    Para fazer mais made in Japan, use as penta maiores mesmo!

    naka
    Veterano
    # nov/04
    · votar


    geralmente é escala de 5 tons e microtons

    janick
    Veterano
    # nov/04
    · votar


    kra, ouve X japan principalmente, L'arc~en~ciel, siam shade, luna sea, malice mizer, dir en grey, ... kra, + - isso... eu sei altas do X, mas nunca parei p analizar como foram compostas... da uma olhada... do X, ouve Silent jealousy, kurenai, Sadistic desire, X, orgasm,week end,...
    do larc, ouve 4th avennue cafe, niji, as if in a dream, anata, blurry eyes, drivers high,... esses sao os q eu mais indico... e pega tab,... e tenta analizar intervalos,...

    Lúcifer
    Veterano
    # nov/04 · Editado por: Lúcifer
    · votar


    Eu toco J-Rock esse eh um trecho da música Kurenai do X-Japan.
    300 bpms
    Todas as notas são colcheias

    e----------------|----------------|-----------------|
    B----h-p-h-p-h-p-|----------------|-----------------|
    G---5-6-5-8-5-6-5|---5-6-5-8-5-6-5|---7-8-7-10-7-8-7|
    D-6--------------|-6--------------|-8---------------|
    A----------------|----------------|-----------------|
    E----------------|----------------|-----------------|



    e-----------------|-----------------|-----------------|
    B-----------------|-----------------|-----------------|
    G---7-8-7-10-7-8-7|---7-8-7-10-7-8-7|---7-8-7-10-7-8-7|
    D-8---------------|-9---------------|-9---------------|
    A-----------------|-----------------|-----------------|
    E-----------------|-----------------|-----------------|

    e--------------------|----------------------------------
    B--------------------|----------------------------------
    G----8-10-8-12-8-10-8|---8-10-8-12-8-10-8-...-----------
    D-10-----------------|-8--------------------------------
    A--------------------|----------------------------------
    E--------------------|----------------------------------

    repete até o 6° compasso e depois começa o solo da guitarra, essa música eh muito massa. Não sei se esse eh o tipo de música japonesa q possa te interessar, mas eu recomendo ela.

    Lúcifer
    Veterano
    # nov/04
    · votar


    janick
    vc tb curte J-Rock cara? onde vc cata as tabs, pq tem umas músicas q eu sofro pra tirar. valew

    Soulface
    Veterano
    # nov/04
    · votar


    Lúcifer
    Ele é viciado em J-Rock, é diferente! aheuhaeuhaeuhauehuaea
    Sabe mais do q eu até!

    Lúcifer
    Veterano
    # nov/04
    · votar


    Soulface
    Eu nem sou tão fanáico, mas eh o estilo q eu mais toco, e faz apenas uns 6 meses q eu ouví pela primeira vez (pra agradar uma garota pra variar). Entaum, vc tb sabe onde tem tabs na net?

    Soulface
    Veterano
    # nov/04
    · votar


    Lúcifer
    Do X Japan tem bastante coisa no www.mysongbook.com
    Deve ter de outras bandas tb. Eu quase não procuro tabs pq na verdade eu sou baterista.

    Tiruk
    Veterano
    # nov/04
    · votar


    o.O

    Lúcifer
    Veterano
    # nov/04
    · votar


    Soulface
    Valew cara. eu não tinha pensado em entrar lá hehe

      Enviar sua resposta para este assunto
              Tablatura   
      Responder tópico na versão original
       

      Tópicos relacionados a Música Japonesa!!!