Arpejo e palheta circular HELP

    Autor Mensagem
    new guy
    Veterano
    # set/04


    O q é palheta circular ?? É alguma técnica q eu tenho q utilizar no arpejo ??
    Outra pergunta : qdo vc está tocando um arpejo qualquer e vc tem q usar um dedo qualquer da mão esquerda para pressionar a corda,e logo a seguir esse mesmo dedo tem q ser usado em outras cordas, vcs pressionam uma corda de cada vez ou fazem uma mini-pestana rápida ??
    Agradeço desde já

    Motley Crue
    Veterano
    # set/04
    · votar


    vc pode usar uma mini pestana, senao me engano mas as notas tem soar uma de cada vez nao se esqueca nunca disso num arpejo, senao vira um acorde se soar tudu junto//

    nunca ouvi falar dessa palheta circular... o que eh usado junto do arpejo eh o sweep, que consiste em escorregar a pelheta nas cordas numa mesma direcao

    Agente Smith
    Veterano
    # set/04
    · votar


    ae, a palhetada circular oo "bolinha" era a tecnica de p[alhetada que o page e o blackmore usavam.Ela as vezes aparece naturalmente, pelo estilo de cada um,se trata apenas de palhetada alternada, mas ao invez de fazer reto, vc, na palhetada para baixo , meio que dando uma circulada em 90 graus, quando vc for palhetar de volta, circule ao contrario,completando 180 graus, realmente' se tem mais controle da palhetada com esta tecnica, mas é pentelho de aprender. O movimento da sua mão sera parecido com o que vc faria ao desenhar um circulo.No arpejo se utiliza sweep, mas ha que usa apenas alternada. e vc pode fazer os mini arpejos, mas varia de como fica confortavel para vc

    Vega
    Veterano
    # set/04
    · votar


    se for o q eu tow pensando essa palhetada eu sempre usei....se não for eu não sei o q eh...hauehaeu....

    Limbonic
    Veterano
    # set/04
    · votar


    palhetada circular eh mais facil e te da uma boa agilidade, mas prefira sempre a palhetada reta pois como mesmo disse eric jonhson, apesar de ser mais dificil ela te da um timbre muito melhor!

    new guy
    Veterano
    # set/04
    · votar


    poh o meu problema em fazer uma mini-pestana é q eu machuco o dedo anelar ( dedo 3 ) . Mas como fica + rápido : com ou sem mini-pestana ??

    guitarist from hell
    Veterano
    # set/04
    · votar


    fazendo a pestaninha fica bem mais facil e pratico pra fazer os arpeggios..treina isso:

    e------------------------------------------------------
    B-------5---7-----------5---7-----------5---7----------
    G-----5-------7-------5-------7-------5-------7--------
    D---5-----------7---5-----------7---5-----------7------
    A------------------------------------------------------
    E------------------------------------------------------
    d d d u u u d d d u u u d d d u u u

    by Frank Gambale

    new guy
    Veterano
    # set/04
    · votar


    guitarist from hell
    poh kra eu já tow treinando um arpejo aqui mas valeu pela ajuda

    Agente Smith
    Veterano
    # set/04
    · votar


    guitarist from hellse pode me passar um exercicio de arpejos em 6 cordas jah q vc é mestre nisso cara? valeu!

    Ps1c0
    Veterano
    # set/04
    · votar


    pra fazer arpejo de tirades tem q ser com mini pestana :|
    a não ser q o cara tenha uma velocidade surpreendente no anelar :P

    Ps1c0
    Veterano
    # set/04
    · votar


    Agente Smith
    cara...geralmente arpejos q começam da 6ª corda acabam no B...
    tp esse shape de Gmaj7:


    e------------------------------------------------------
    B-----------------------3--7--7--3----------------------
    G--------------------4--------------4-------------------
    D--------------4--5--------------------5--4-------------
    A-----------5--------------------------------5----------
    E----3--7---------------------------------------7--3----


    e seguindo o campo harmonico de G teriamos o arpejo menor 7 em B...aih o shape muda...ah bem semelhante à pentatonica.

    Bm7


    e--------------------------------------------------------
    B-----------------------7--10--10--7---------------------
    G--------------------7----------------7------------------
    D--------------7--9----------------------9--7------------
    A-----------9----------------------------------9---------
    E---7---10-----------------------------------------10--7-


    eu to falando em tétrades...

    Agente Smith
    Veterano
    # set/04
    · votar


    Ps1c0 saqui cara, é q eu vi uns lances do edu ardanuy q ele usava sas seis cordas, mas vou trinar isso ae q c postou, valeu cara!

    Ps1c0
    Veterano
    # set/04
    · votar


    Agente Smith
    nd cara... :)

    eh sempre bom saber shapes em varias regiões do braço pra num ter q ir ateh a casa 10 soh pra fazer o de G e voltar pra 3 pra mandar o de C...

    tem uns q são bons pra usar tbm q começam na 4ª corda...

    Agente Smith
    Veterano
    # set/04
    · votar


    assim cara, eui treinava isso, sabia todos os asrpejos do braço inteiro, mas nunca mais usei, então esqueci, tenho q treinar

    guitarist from hell
    Veterano
    # set/04
    · votar


    Agente Smith
    se pode me passar um exercicio de arpejos em 6 cordas?


    |--------------h12-------------------------h12---
    |-----------h10----h10------------------h10------
    |*--------h7----------h7--------------h7---------
    |*-----h11--------------h11--------h11-----------
    |----h9--------------------h9----h9--------------
    |-h7--------------------------h7-----------------

    |---------------h16---------------------------h14---|
    |------------h14---h14---------------------h12------|
    |---------h11---------h11---------------h11--------*|
    |------h14---------------h14---------h14-----------*|
    |---h12---------------------h12---h12---------------|
    |h10---------------------------h10------------------|

    Mystical Potato Head Groove Thing - Satriani


    Vega
    Veterano
    # set/04
    · votar


    arpegio d 6 cordas (solo da time, angra+-)


    E||------------------------13h17h13-17h18h17-13-17-17-22-||
    B||---------------------15-------------------------------||
    G||------------------14----------------------------------||
    D||---------------15-------------------------------------||
    A||------------17----------------------------------------||
    E||------13h17-------------------------------------------||


    Agente Smith
    Veterano
    # set/04
    · votar


    guitarist from hell
    Vega valeus ae, vou procurar treinar essa do sathc tanto so com a mão esq, quanto com palheta, e vou procurar essa musica do angra ae, valeus :)

    Homem Cueca
    Veterano
    # set/04
    · votar


    Solo Carry On Rafael - Angra

    e-17-13-------17p13h17p13h15p12------15p12----------------
    B-------15---------------------13---------13-------------
    G----------14---------------------12---------12----------
    D------------------------------------------------------
    A------------------------------------------------------
    E------------------------------------------------------


    MacCa
    Veterano
    # set/04
    · votar


    Agente Smith

    Eu faço mais ou menos isso, eu acho. A minhna palhetada alternada sai muito mais eficiente quando eu uso a articulação do dedão e faço um movimento semi-circular (pra trocar dee corda fica mais fácil pra mim).

    fgr
    Veterano
    # set/04
    · votar


    guitarist from hell

    Vc tem a video aula do Frank??? ou alguma coisa com essas lições????
    Po to um tempao atraz e nunca acho, meu professor disse que as video-aulas dele sobre sweep são as melhores...

    guitarist from hell
    Veterano
    # set/04
    · votar


    fgr
    Vc tem a video aula do Frank??? ou alguma coisa com essas lições????

    eu tinha uma q era muito foda.. mas tive q formatar o pc e perdi =(
    agora eu tenho so o audio e o scan das paginas de uma aula dele.. é boa, mas podia ser melhor.. mas enfim.. essa eu peguei la no fernandoamaral.. mas no emule tem varias coisas dele e de outros guitarristas q tb ajudam bastante.

    meu professor disse que as video-aulas dele sobre sweep são as melhores...

    tb acho.. tem varias outras videoaulas q são fodas... mas as dele quebram tudo

    \m/

    vinnie_moore
    Veterano
    # set/04
    · votar


    pessoal baixem esse video q vcs vao entender !!!

    http://pwp.netcabo.pt/playguitar/Altitudes(JB).wmv

    nFall
    Veterano
    # nov/04
    · votar


    eu queria fazer arpejos assim =/

      Enviar sua resposta para este assunto
              Tablatura   
      Responder tópico na versão original
       

      Tópicos relacionados a Arpejo e palheta circular HELP