Que escalas sao essas? ajuda

Autor Mensagem
sperms
Veterano
# out/09


Bem, conheci novas escalas, porém não sei o nome delas. Creio que sejam pra G, eu tô usando elas em G.

Enfim, queria saber o nome delas, quando e onde devo/posso usar.

Eis aqui elas:

1)
E||---------------------------------7-8--10--|
B||--------------------------7-8-10----------|
G||--------------------5-7-9-----------------|
D||--------------5-7-9-----------------------|
A||--------5-7-9-----------------------------|
E||--5-7-8-----------------------------------|


2)
--------------------------------------8-10--12--|
------------------------------8-10-12-----------|
-----------------------7-9-11-------------------|
----------------7-9-10--------------------------|
---------7-9-10---------------------------------|
--7-8-10----------------------------------------|

3)
-------------------------------------------10-12--14--|
----------------------------------10-12-13------------|
--------------------------9-11-12---------------------|
------------------9-10-12-----------------------------|
----------9-10-12-------------------------------------|
\--8-10-12---------------------------------------------|

4)
-----------------------------------------------12-14--15--|
--------------------------------------12-13-15------------|
-----------------------------11-12-14---------------------|
--------------------10-12-14------------------------------|
-----------10-12-14---------------------------------------|
--10-12-14------------------------------------------------|

5)

-----------------------------------------------14-15--17--|
--------------------------------------13-15-17------------|
-----------------------------12-14-16---------------------|
--------------------12-14-16------------------------------|
-----------12-14-15---------------------------------------|
--12-14-15------------------------------------------------|

6)

-----------------------------------------------15-17--19--|
--------------------------------------15-17-19------------|
-----------------------------14-16-17---------------------|
--------------------14-16-17------------------------------|
-----------14-15-17---------------------------------------|
--14-15-17------------------------------------------------|

7)

--------------------------------5-7--8--||
--------------------------5-7-8---------||
--------------------4-5-7---------------||
--------------4-5-7---------------------||
--------3-5-7---------------------------||
--3-5-7---------------------------------||


Obrigado pela a atençao!

thegreen-eyedmonster
Veterano
# out/09 · Editado por: thegreen-eyedmonster
· votar


sperms

Modos gregos. Só que misturando os shapes. Onde vc viu essas escalas?

jacksonfive
Veterano
# out/09
· votar


sperms
são escalas musicais !!!

sidguitar1
Veterano
# out/09 · Editado por: sidguitar1
· votar


cara é tudo escala de sol maior / mi menor(natural escala de sol maior notas sol la si do re mi fa#,modos gregos nao tem nada a ver com isso,o pessoal e ate professores passam errado,isso que vcpostou sao 7 desenhos da escala de sol maior.abraço

thegreen-eyedmonster
Veterano
# out/09 · Editado por: thegreen-eyedmonster
· votar


sidguitar1

Cara, são modos gregos sim: Olha aqui

EDIT: Não precisa ler inteiro. Só o começo.

Codinome Jones
Veterano
# out/09 · Editado por: Codinome Jones
· votar


viajei

jacksonfive
Veterano
# out/09
· votar


thegreen-eyedmonster
no vei qui chute nas perna ... que qui é isso : I: C (Jônico): C D E F G A B

sidguitar1
Veterano
# out/09 · Editado por: sidguitar1
· votar


thegreen-eyedmonster cara eu nem vou ler,ja estudei no conservatorio de musica classica de curitiba em 1995 ,no souza lima em 2001 e em 2003 no de mpb daqui com varios outros professores como o pollaco,e te afirmo que falar que esses desenhos de escala sao modos gregos é a maior burrice da humanidade,pra vc dizer que o primeiro desenho é um la dorico vc teria que analizar os intervalos T 2 b3 4j 5j 6 7 e tocar em algum acorde ou base que desse intençao dorica ou mesmo em uma harmonia saida desta escala de la dorico,ou um acorde que foi gerado por ela como um Am6(9) por exemplo,ou pegar o 3 desenho emontar o acorde C7M(#11) ou sobrepor a escala em cima de um do pra dar o efeito de um do lidio,cara essa discuçao eu acho que nao vai levar a nada mas se alguem passou pra vc que modos gregos é isso, 7 desenhos de escala, entao melhor vc aprender direito.isso ai é simplesmente 7 desenhos da escala de sol maior.modos gregos é bem mais que fazer 7 digitaçoes.abraço

LeandroP
Moderador
# out/09
· votar


sidguitar1

hehauehaue se gosta tanto de desenho vai assistir o pica-pau °.°

sidguitar1
Veterano
# out/09
· votar


LeandroP muito proveitoso,abraço

Garrett
Veterano
# out/09 · Editado por: Garrett
· votar


LeandroP .. Comentário infame.

Tem gente querendo aprender, gente tentando ajudar e gente que busca a ignorância absoluta...

Lamentável.

sperms
Veterano
# out/09 · Editado por: sperms
· votar


Isso não são modos gregos. Fato.

Caike_bend
Veterano
# out/09
· votar


thegreen-eyedmonster
Cara, um colega me passou, mas ele também não sabia os nomes.
sidguitar1
Quer dizer que todos esses shaps tem as mesmas notas, só que em lugares diferentes, não é isso?

Cara, tem como você postar uns shapes básicos dos modos gregos, só pra mim ter uma idéia? Tô começando agora e sou autodidata, esse assunto é complexo e tô meio perdido, então se poder postar os shapes já me ajudaria muito.

Abraço!
jacksonfive
Descobriu isso sozinho, cara?

jacksonfive
Veterano
# out/09 · Editado por: jacksonfive
· votar


thegreen-eyedmonster
ê caboco , vai mais ...

sidguitar1
Veterano
# out/09
· votar


Caike_bend cara nao existe shape de modos gregos,vc tem q entender pra que que serve,cada modo tocado em cima de um acorde gera um clima diferente(cara fica foda explicar aqui),se vc quiser dar nomes apenas para digitaçoes entao esses desenhos que ele falou sao
1 dorico
2frigio
3lidio
4mixolidio
5eolio
6locrio
7jonio
mas modos gregos nao é isso nao.....estuda intervalos e ai vc vai poder intender modos.abraço

Caike_bend
Veterano
# out/09
· votar


sidguitar1
Quando você diz: ''se vc quiser dar nomes apenas para digitaçoes'' O que você quis dizer exatamente?

Quis dizer que pra improvisação ou coisa do tipo, esses são modos gregos?

Abraço!

ogner
Veterano
# out/09
· votar


Caike_bend

Cara, modos gregos são ,posso dizer, intenções!! As escalas estão diretamente ligadas a harmonia que vc vai usa-las.....Sozinhas, as escalas dos modos são simplesmente escalas maiores...

sidguitar1
Veterano
# out/09 · Editado por: sidguitar1
· votar


cara,quando pensar em modos pense em intervalos.por exemplo

e------------------------------------------------------
B------------------------------------------------------
G------------------------------------------------------
D-----------------------9-------------------------------
A--------------9-10-12--------------------------------------
E-----8-10--12----------------------------------------------

se vc analizar as notas vc tem do re mi fa# sol la si
T 2 3 #4 5j 6J 7M

se vc tocar essa escala em e um G por exemplo,vc nao estara fazendo nada mais dq a escala de sol maior começando na nota do,mas se vc tocar essa mesma escala de do com a nota F# saida do campo harmonico de sol em cima de um acorde C por exemplo,ai vc vai te uma sonoridade de do lidio gerando em cima do acorde as notas do re mi fa# sol la si,aqueles acordes que vc ve como C7M(9,#11),nesse caso vc pode usar o modo lidio(ja que aquela escala de sol começando pela nota do gera os intervalos que estao nesse acorde),e isso pode ser feito com todos os desenhos das escalas acima,primeiro lugar analize os intervalos,e depois vai ficar mais facil de vc entender que cada modo gera acorde e extençoes,e sonoridade diferentes quando sobrepostos em outos acordes,mas como falei,acho que nao vai ser aqui q vc vai entender bem esse assunto.abraço

Codinome Jones
Veterano
# out/09
· votar


na verdade tudo que é escala eh sub produto da escala maior; muda-se um interva-lo o que resuta em uma escala diferente.. e dependendo do intervalo mudado, você tira uma sonoridade diferente. Ou seja, se você souber os intervalos e não os shapes, sua gama de improvisação aumenta muito.

Curly
Veterano
# out/09
· votar


Se algum iniciante estava começando a entender alguma coisa de modos gregos voltou a estaca zero depois de ler essas "explicações"....

Carregando
Veterano
# out/09
· votar


na verdade tudo que é escala eh sub produto da escala maior; muda-se um interva-lo o que resuta em uma escala diferente.. e dependendo do intervalo mudado, você tira uma sonoridade diferente. Ou seja, se você souber os intervalos e não os shapes, sua gama de improvisação aumenta muito.


ai ta uma coisa qe nao entendo, como saber esses intervalos?

é tpo.. tom tom semitom? tem qe saber isso? e depois i tocando sem se preocupar com shapes?


eu nunca entendo quando alguem me fala pra pega intervalos.

ogner
Veterano
# out/09
· votar


Curly

Falei besteira ali em cima?? Qualquer coisa eu edito...

ogner
Veterano
# out/09 · Editado por: ogner
· votar


Edit: Desisto o wikipédia não quer linkar....

Curly
Veterano
# out/09
· votar


ogner

ninguém falou besteira mano. A questão é que da maneira como a pergunta do carinha foi respondida, mais confundiu do que explicou... Temos que responder essas coisas de maneira a não assustar nem confundir os iniciantes !

sidguitar1
Veterano
# out/09 · Editado por: sidguitar1
· votar


pra ajudar de verdade,eu acho que a maioria nao aprende pq pega tabelas prontas e nao entende oq ta fazendo.pegue todas as digitaçoes que foram passadas acima e analize da nota que vc ta começando ex:


e------------------------------------------------------
B------------------------------------------------------
G------------------------------------------------------
D-----------------5-------------------------------------
A----------5-7-9------------------------------------------
E----5-7-8------------------------------------------------

notas la si do re mi fa# sol,intervalos T 2 b3 4j 5j 6 7 ,cada vez que vc tiver uma escala com essa configuraçao digamos assim vc vai ter o modo dorico,ex: se vc ta tocando uma musica com sua banda e tem um Dm na musica e o tecladista fala pra vc usar o re menor dorico entao vc vai pegar e montar uma escala de re menor com aquela mesma configuraçao T 2 b3 4j 5j 6 7


e------------------------------------------------------
B------------------------------------------------------
G----------------5--7------------------------------------
D----------5-7-9------------------------------------------
A----5-7-8------------------------------------------------
E------------------------------------------------------

ou

e------------------------------------------------------
B------------------------------------------------------
G------------------------------------------------------
D--------------------------10-12---------------------------
A---------------10-12-14-------------------------------------
E------10-12-13----------------------------------------------
na verdade escala de do maior gerou o modo dorico(2 grau do campo harm maior)
essa mesma escala nesse caso gera acordes como Dm Dm7 Dm6 Dm7(9) etc
espero que tenha dado uma clareada.abraço

sidguitar1
Veterano
# out/09
· votar


Curly entao cara foi oq falei la no começo.pra que falar em modos gregos,sao so as 7 digitaçoes da escala de sol maior.agora se alguem falar que se vc tocar aquelas 7 digitaçoes vai estar fazendo e usando modor gregos,ai vc tem que concordar que alguem ensinou o cara do geito que a maioria ta ensinando por ai(na verdade enganando).abraço

Carregando
Veterano
# out/09 · Editado por: Carregando
· votar


ogner

intervalos seria : T, 2ºM ou m, 3ºM ou m, 4justa, 5 justa, 6º M ou m, 7º M ou m ... certo?

dai pra estudalos eu teria que começar a faser as escalas assim, pelo braço sem me preocupar com shapes.?

seguindo o esquema de distancia entre os som que esplica ali

Curly
Veterano
# out/09
· votar


sidguitar1

acredito que o entendimento de assuntos complexos vem progressivamente, vc chamou o carinha de burro sendo que o que ele falou não está errado, apenas é uma visão muito inicial da coisa, nesse caso, o risco é o iniciante assustar ou mesmo regredir por achar que não sabe nada.

.eddie
Veterano
# out/09
· votar


Considerem-se responsáveis por eu nao querer mais estudar música =D

zuera hehe, mas q eu me assustei eu assustei sim, acho q prefiro estudar física quantica ._.

sidguitar1
Veterano
# out/09 · Editado por: sidguitar1
· votar


Curly cara to perdendo o maior tempo tentando explicar pra quem tiver interessado como funciona modos,nao coloque palavras na minha boca pra querer que alguem fique com raiva de mim,nao chamei e nem chamo iniciante de burro visto que meu ganha pao é dar aulas de guitarra(ja faço isso a mais de 15 anos) e em 80% sao esses iniciantes que dao o meu sustento,oq falei e repito é que muitos enganadores passam pra seus alunos que modos gregos é isso,e o thegreen passou link de alguma fonte e eu corrigi,nao chamei ele de burro pq respeito as pessoas aque no fcc coisa que muitos nao fazem.abraço

Enviar sua resposta para este assunto
        Tablatura   
Responder tópico na versão original
 

Tópicos relacionados a Que escalas sao essas? ajuda