My small first riff

    Autor Mensagem
    Dadin
    Veterano
    # dez/08


    Fiz esse riff aqui (creio que irão dizer que ficou uma merda), mas não me custa nada ouvir opiniões, então vou deixar ai pra ouvirem. Se tiverem o que comentar, sobre o que num deu certo, eu agradeço muito.

    e------------------------------------------------------
    B------------------------------------------------------
    G----0-0-3--0-0- 0-0-5-------(termina a última vez e liga já na nota re (7)) 5h7--7-7-5-0-3-0--5-7-7-5-0-3-0-7--8-8-7-5-3-0-8-8-7-5-3-0--7h12-0--- 3x (repete essa primeira parte 3x)
    D----0-0-3--0-0- 0-0-5---------------------------------------------------------12p8-0
    A------------------------------------------------------
    E------------------------------------------------------


    Dadin
    Veterano
    # dez/08
    · votar


    num acredito, ficou tudo errado! preciso aprender a mexer com este TAB do fórum, peraí pessoal que eu vou consertar

    Dadin
    Veterano
    # dez/08
    · votar


    seria assim: vc faz essa primeira parte 3x:

    G----0-0-3--0-0- 0-0-5
    D----0-0-3--0-0- 0-0-5

    e na última vez liga o 5 (nota do) da corda sol com o 7(nota re)

    G -5h7--7-7-5-0-3-0--5-7-7-5-0-3-0-7--8-8-7-5-3-0-8-8-7-5-3-0
    D ---------------------------------------------------------------------- -----

    ai termina assim:

    G --7h12----------0
    D ----------12p8--0

    Dadin
    Veterano
    # dez/08
    · votar


    peço desculpa pela minha ignorÂnica, e por talvez ter postado algo que vcs possam achar estupidamente ridículo (este riff), mas acontece que eu sou iniciante e gosto de aprender ouvindo sugestões ou opiniões.

    Se por acaso alguem gostar, eu prolongo esse riffizinho.

    Rodrigo Yoshida
    Veterano
    # dez/08
    · votar


    [b]Dadin

    Caralho, vc conseguiu destruir o layout do fórum! hahah

    Em tab assim não dá pra saber como é o riff, cada um pode tocar de um jeito, uma velocidade diferente, usar uma outra técnica, grava aí pra ter uma idéia melhor.

    Dadin
    Veterano
    # dez/08
    · votar


    Rodrigo Yoshida

    Como assim destruir o layout do fórum?

    Eu já gravei, mas num sei como faço para colocar aqui, está em formato wav., se puder me informar?

    DsL-Hard Rock
    Veterano
    # dez/08
    · votar


    nussa, o layout foi pro saco...
    cara, entra aki oh http://www.4shared.com/signup.jsp
    cria a conta e posta o riff tocando mesmo, soh pela tab eh impossivell

    nussa, rachei de rir com o layout destruido xD

      Enviar sua resposta para este assunto
              Tablatura   
      Responder tópico na versão original
       

      Tópicos relacionados a My small first riff