Se me pudessem aconselhar algum exercisio para melhorar nestes solos :P

    Autor Mensagem
    Guitar_Freak666
    Veterano
    # dez/05


    Bem o caso é o seguinte...na parte da musica em k chegam os solos toda a gente olha para nós né e tipo,eu sou capaz de fazer alguns solos(nada de especial porque tb só tenho 6 meses de prática)mas há umas notas k me custam sempre mais para serem tocadas!! X_X!
    Por exemplo se me derem um solo com uma parte tipo isto:
    e - ----15-12-----14-11------15-12-----14-11
    B - ----------12---------12---------12---------12
    Tocado várias vezes e rápido eu até acho fácil e não custa nada,mas por alguma razão isto troca-me os dedos todos...tipo:
    e -13--10----10--13-----13--10----10--13
    B - ------10----------------------10---------

    Será algum "Bad Habit"?Se conhecerem algum exercicio k ajude ou se acharem k é melhor praticar esta parte do solo digem algo please!!
    Só espero k percebam kual é o problema...

    effenberg
    Veterano
    # dez/05
    · votar


    Olha cara, teu problema deve ser nessa parte:

    e --13-----13--

    Como repete as notas tu deve estar te enrolando, toca mais devagar até tu decorar bem e depois acelera.

    gustavo_m
    Veterano
    # dez/05
    · votar


    ishh tem varios..
    chama cromatismo


    e---------------------------------------1-2-3-4-------
    B-------------------------------1-2-3-4--------4-3-2-1
    G-----------------------1-2-3-4------------------------
    D---------------1-2-3-4--------------------------------
    A-------1-2-3-4---------------------------------------
    E1-2-3-4-----------------------------------------------


    darkwolf
    Veterano
    # dez/05
    · votar


    mecanização

    gustavo_m
    Veterano
    # dez/05
    · votar



    e-------------------------------------------------5-9-5---
    B------------------------------------------------7-----7-
    G-----------------------------------------------6-------6
    D---------------------------------------------7----------7
    A--------7-------8-------9--------10--------9-------------9
    E-7-8-10---7-8-10--7-8-10--7-8-10--------------------


    Guitar_Freak666
    Veterano
    # dez/05
    · votar


    gustavo_m
    Vou práticar um pouco
    (Nada k não se consiga melhorar com o tempo e prática certo?)


    effenberg
    Exacto,meu problema é kuando tenho k repetir a nota :P

    Blonde Hammet
    Veterano
    # dez/05
    · votar


    exercisio
    \o/

    effenberg
    Veterano
    # dez/05
    · votar


    Guitar_Freak666

    É, tu deve tocar só uma vez ela quando vai tocar denovo não é?

    Isso é aquela questão de dividir o solo em pequenas partes, nesse teu caso ali tu pode dividir ele em duas, se tu pegar e tocar ele mais devagar, até que tu consiga distinguir bem o fim e o começo de cada uma, na hora de aumentar a velocidade sai tranquilo.

    É só questão de um pouco mais de treino que sai tranquilo.

    Guitar_Freak666
    Veterano
    # dez/05
    · votar


    Isto tb porque só agora comecei a tocar solos mais complicados tipo metallica e malmsteen(como os exemplos de cima,o primeiro é de metallica e o segundo de malmsteen,lol)!
    Estava habituado a tocar solos de green day,Nirvana,white stripes e mais alguns...LOL...se calhar o problema é esse,mas tou a gostar de praticar estes solos dificeis,sei k um dia os vou conseguir fazer limpos(ou kuase xD)

    effenberg
    Kuando você disse k era no:
    e -13---13...não é bem aki,é mais nesta parte:

    e -----10--13--
    B - -10---------...e depois voltar ao-> e -13---13
    *Já o toquei várias vezes e nessa parte já tenho feito melhor...é mesmo falta de prática :P!

    effenberg
    Veterano
    # dez/05
    · votar


    Guitar_Freak666

    Poisé, o fim e o início de cada trecho são meio que iguais, ai o cara acaba o primeiro trecho e já acha que está começando o segundo, é uma enrolação.

    Estava habituado a tocar solos de green day,Nirvana,white stripes e mais alguns...LOL...se calhar o problema é esse,mas tou a gostar de praticar estes solos dificeis,sei k um dia os vou conseguir fazer limpos(ou kuase xD)

    Muito bem, pare de escutar essas porcarias, agora tu começa a entender porque agente zoa tanto dessas bandas não? E de preferência começa a escrever com Q em vez de K e pare com esse LOL e ^^ que isso parece coisa de emo.

    E boa sorte.

    Guitar_Freak666
    Veterano
    # dez/05
    · votar


    effenberg
    Muito bem, pare de escutar essas porcarias, agora tu começa a entender porque agente zoa tanto dessas bandas não?

    Claro que percebo,só que eu achei bom para começar tocar solos "rascas",assim já tinha alguma experiência de solo.

    Kursk
    Veterano
    # dez/05
    · votar


    Não existe exercício para melhorar o solo, existe treinar o solo até ficar perfeito.

    Hyllop
    Veterano
    # dez/05
    · votar


    Treina Sweep picking... ¬¬
    hihihihi...

    gustavo_m
    Veterano
    # dez/05
    · votar


    Guitar_Freak666
    todo mundo tem problemas e vicios errados..

    mas treina sweep picking.. q ajuda mto no futuro
    soh q com os dedos certo..(eu me acustumei com os errados..mas to arrumando)

    uns exercicio de sweep
    (faz lento.. dpois rapido)

         H
    
    e-----5--9-5-----5-9-5----------6-9-6-----6-9-6---------^V
    B---6-------6--6------6--------8------8--8-----8--------^V
    G-5----------5----------5-----7--------7--------7-------^V
    D------------------------------------------------------
    A------------------------------------------------------
    E------------------------------------------------------


    acho q eh assim

      Enviar sua resposta para este assunto
              Tablatura   
      Responder tópico na versão original
       

      Tópicos relacionados a Se me pudessem aconselhar algum exercisio para melhorar nestes solos :P