Como tocar músicas com afinação 2tons abaixo,com afinação padrão?

    Autor Mensagem
    _Myth
    Veterano
    # dez/11


    Como tocar músicas com afinação 2 tons abaixo,com afinação padrão?
    Eu sei que tem um jeito que e pegar a tablatura e voltar 2 casas
    mas e se a tab for assim

    D------------------------------------------------------
    A------------------------------------------------------
    F------------------------------------------------------
    C-0----------------------------------------------------
    G-0----------------------------------------------------
    C-0----------------------------------------------------

    Tem outro jeito de passar pra afinação normal?

    The Dark Shape of Pentatonics
    Veterano
    # dez/11
    · votar


    cara. Pelo que eu entendi, vc usa a afinação padrão e quer tocar essa música que tá na afnação CGCFAD (que, eu particularmente adoro usar.). SE eu entendi errado é só me falar. Mas eu acho que talvez vc possa encontrar as notas CGC no braço da guitarra e tocá-las que vai dar um som, no mínimo parecido.

    Carregando
    Veterano
    # dez/11
    · votar


    _Myth


    esqueça a tab, e veja a harmonia da musica.

    depois dessa ela 2 tons abaixo.

    qwertyasdfgh
    Veterano
    # dez/11 · Editado por: qwertyasdfgh
    · votar


    Isso é Drop C e não dois tons abaixo, afinação linda. =/
    Dropa ela em C ou toca assim:
    e4--
    B3--
    G3--
    D3-10(D4-1t=C4)
    A3-10(A4-1t=G3)
    E2-8(E3-2t=C3)

    Tu vai tirar um
    C4, G3, C3.

    Na tua tu tiraria um C3, G2, C2. Ou seja, quase a mesma coisa. A minha versão na E seria o mesmo que a sua com pestana na 12ª casa.

    Enfim, coisa que qualquer guitarrista deveria saber.

    BrUnOsOtO
    Veterano
    # dez/11 · Editado por: BrUnOsOtO
    · votar


    Na afinação normal você pode tirar assim, que vai vicar BEM parecido:

    e------------------------------------------------------
    B------------------------------------------------------
    G------------------------------------------------------
    D----5-------------------------------------------------
    A----3-------------------------------------------------
    E----3-------------------------------------------------


    Pois assim: Ao tocar a 3ª casa na Mí, estará fazendo um Sol (dããr), e assim, estará "alastrando" o grave do acorde, jus que o sol é a nota do meio de um Dó na afinação drop C
    sakou?

      Enviar sua resposta para este assunto
              Tablatura   
      Responder tópico na versão original
       

      Tópicos relacionados a Como tocar músicas com afinação 2tons abaixo,com afinação padrão?