como preencher a guitarra base ?

    Autor Mensagem
    Leandro Yoshida
    Veterano
    # fev/05


    Bem. Minha dificuldade é a seguinte.
    Escolhi tocar pop rock por ser mais fácil. Porém quando não consigo achar a música que gostaria de tocar no Guitar pro, procuro por cifras.
    O problema é que a cifra não estabelece aqueles "Barulhinhos", "detalhes",que faz a guitarra solo, que eu a acho muito difícil de tirar de ouvido.
    Tem algum método para eu conseguir tirar mais detalhadamente a música ou seja, idêntica a original?.O que eu poderia estudar para desenvolver essa falha ?

    LeandroP
    Moderador
    # fev/05
    · votar


    Leandro Yoshida

    Estude algumas inversões de acordes. Se a música pede um acorde C, você pode fazer um C/E


    e------------------------------------------------------
    B--1------5------------5-------------------------------
    G--0------5--------------5h7p5-------------------------
    D--2------5---------5-----------5h7p5------------------
    A--3------7-------7--------------------/7--------------
    E------------------------------------------------------
    C C/E Exemplo em C/E



    com swing!!!

    rka
    Veterano
    # fev/05
    · votar


    estude formação de acordes, campo harmonico... tente montar os acordes de maneiras diferentes em outras regiões do braço

    Mackabr0
    Veterano
    # fev/05
    · votar


    Leandro Yoshida
    escuta musica com fone de ouvido ajuda !!

    The Blue Special Guitar
    Veterano
    # fev/05
    · votar


    Leandro Yoshida
    Tipo, em músicas de "power chords", em algumas vezes, os caras não usam só acordes de quinta.
    Varia entre acordes de quinta, de terça, de quarta, sexta, quinta com sétima, oitava, etc....

    Olha aí umas variações de C:

    C5      C3   C4    C8  C5/7  C    C  C
    
    e---------------------------------------3---------------
    B------------------------------------5--5----------------
    G---------------------5---4----------5--5------------------
    D--5-------2-----3----x---5-----2----5-----------------------
    A--3-------3-----3----3---3-----3----------------------------
    E-------------------------------3-----------------------

    O C5 é utilizado pela maioria das bandas de pop/rock...
    Acordes como o C3, C4, etc, são utilizados nas bases de guitarristas mais técnicos, como Jeff Beck, Jimi Hendrix, Jimi Page, etc.
    Essas outras formas de montar o acorde de C são muito usadas pelo Jimi Hendrix. Se vc ouvir a "Like a Rolling Stone", verá que ele monta todos os acordes desse modo, usando apenas três cordas, para formar a tríade.

      Enviar sua resposta para este assunto
              Tablatura   
      Responder tópico na versão original
       

      Tópicos relacionados a como preencher a guitarra base ?