Me expliquem por favor

    Autor Mensagem
    Cansoneiro
    Veterano
    # nov/04


    Estas escalas estaum em sol....

    MODOS GREGOS(exemplos em G)


    Jônio
    -------------------------------5-7-8-
    -------------------------5-7-8-------
    -------------------4-5-7-------------
    -------------4-5-7-------------------
    -------3-5-7-------------------------
    -3-5-7-------------------------------

    Dório
    --------------------------------7-8-10-
    -------------------------7-8-10--------
    -------------------5-7-9---------------
    -------------5-7-9---------------------
    -------5-7-9---------------------------
    -5-7-8---------------------------------

    Frígio
    -------------------------------------8-10-12-
    -----------------------------8-10-12---------
    ----------------------7-9-11-----------------
    ---------------7-9-10------------------------
    --------7-9-10-------------------------------
    -7-8-10--------------------------------------

    Lídio
    ------------------------------------------10-12-14-
    ---------------------------------10-12-13----------
    -------------------------9-11-12-------------------
    -----------------9-10-12---------------------------
    ---------9-10-12-----------------------------------
    -8-10-12-------------------------------------------

    Mixolídio
    ----------------------------------------------12-14-15-
    -------------------------------------12-13-15----------
    ----------------------------11-12-14-------------------
    -------------------10-12-14----------------------------
    ----------10-12-14-------------------------------------
    -10-12-14----------------------------------------------

    Eólio
    ----------------------------------------------14-15-17-
    -------------------------------------13-15-17----------
    ----------------------------12-14-16-------------------
    -------------------12-14-16----------------------------
    ----------12-14-15-------------------------------------
    -12-14-15----------------------------------------------

    Lócrio
    ----------------------------------------------15-17-19-
    -------------------------------------15-17-19----------
    ----------------------------14-16-17-------------------
    -------------------14-16-17----------------------------
    ----------14-15-17-------------------------------------
    -14-15-17----------------------------------------------

    mas a dório e frígio etc,,, naums estaum em A e B, etc...
    elas começam neste tom...



    ou é a primeira escala que contam.. tipo eu comecei em jônio de sol... as outras vam ser todas em sol...
    E jonio é só sol
    tipo
    Jônio
    -------------------------------5-7-8-
    -------------------------5-7-8-------
    -------------------4-5-7-------------
    -------------4-5-7-------------------
    -------3-5-7-------------------------
    -3-5-7-------------------------------


    e dório e´A
    Dório
    --------------------------------7-8-10-
    -------------------------7-8-10--------
    -------------------5-7-9---------------
    -------------5-7-9---------------------
    -------5-7-9---------------------------
    -5-7-8---------------------------------

    espero que vcs me ajudem, valew

    crau
    Veterano
    # nov/04
    · votar


    www. brasil guitarra. ar .gs

    guschard
    Veterano
    # nov/04
    · votar


    Cansoneiro
    o dorico la eh dorico de A, mas o tom eh G

          Começa em   
    
    Jônio - G
    Dórico - A
    Frígio - B
    Lídeo - C
    Mixolídeo - D
    Eólio - E
    Lócrio - F


    começma em notas diferentes, mas saum da msm tonalidade, por o dórico saum as msmas notas do jonio, apenas com a tonica em um luigar diferente


    putz, eu n sei explica, mas acho q da pra intende

    Alan411
    Veterano
    # nov/04
    · votar


    começma em notas diferentes, mas saum da msm tonalidade, por o dórico saum as msmas notas do jonio, apenas com a tonica em um luigar diferente
    mais tah certinhu isso ..q eu saiba..
    só muda a ordem

    DistorçaoMan
    Veterano
    # nov/04
    · votar


    o q seria esse modo grego????

    Blade
    Veterano
    # nov/04 · Editado por: Blade
    · votar


    Cansoneiro
    bom, na verdade tem um erro no q vc colocou, esses desenhos q vc mensionou são a junção dos modos, por exemplo:

    -------------------------------5-7-8-
    -------------------------5-7-8-------
    -------------------4-5-7-------------
    -------------4-5-7-------------------
    -------3-5-7-------------------------
    -3-5-7-------------------------------



    esse desenho é a junção dos modos jonico e dórico
    Jonico

    e----------------------2-3-5---------------------------
    B-------------------3-5--------------------------------
    G--------------2-4-5-----------------------------------
    D---------2-4-5----------------------------------------
    A----2-3-5---------------------------------------------
    E-3-5--------------------------------------------------


    Dórico

    e--------------------------5-7-8-----------------------
    B---------------------5-7-8----------------------------
    G---------------4-5-7----------------------------------
    D----------4-5-7---------------------------------------
    A-------5-7--------------------------------------------
    E--5-7-8-----------------------------------------------


    BlaCk LaBeL
    Veterano
    # nov/04
    · votar


    Blade
    Mas isso é uma mera questão de shapes, pois as notas são exatamente as mesmas. Não é o shape que vai dizer que você está usando corretamente determinado modo.

    Cansoneiro
    Todos modos derivados de uma escala maior vão ter exatamente as mesmas notas dessa escala. O que vai fazê-los soar diferente é a aplicação de cada um.

    Blade
    Veterano
    # nov/04
    · votar


    e tem um jeito q eu considero melhor pra descobrir como transpor a escala para o tom q vc quer, pegando a Tônica de cada desenho: (as notas em negrito)


    Jônico
    e----------------------2-3-5---------------------------
    B-------------------3-5--------------------------------
    G--------------2-4-5-----------------------------------
    D---------2-4-5----------------------------------------
    A----2-3-5---------------------------------------------
    E-3-5-------------------------------------------



    Dórico
    e-------------------------5-7-8------------------------
    B--------------------5-7-8-----------------------------
    G---------------4-5-7----------------------------------
    D----------4-5-7--------------------------------
    A-------5-7--------------------------------------------
    E--5-7-8-----------------------------------------------



    Frígio
    e----------------------------7-8-10--------------------
    B----------------------7-8-10--------------------------
    G-------------------7-9--------------------------------
    D-------------7-9-10-----------------------------------
    A-------7-9-10----------------------------------
    E-7-8-10-----------------------------------------------



    o Modo Lídio é o mesmo q o Frígio, só q sem a primeira nota


    Mixolídio
    e------------------------------------10-12-14----------
    B----------------------------10-12-13------------------
    G---------------------9-11-12--------------------------
    D-------------9-10-12----------------------------------
    A------9-10-12----------------------------------
    E-10-12------------------------------------------------



    Eólio
    e---------------------------------------12-14-15-------
    B-------------------------------12-13-15---------------
    G-----------------------11-12-14-----------------------
    D------------------12-14-------------------------------
    A----------12-14-15------------------------------------
    E--12-14-15-------------------------------------




    Lócrio
    e---------------------------------------------14-15-17-
    B----------------------------------------15-17---------
    G--------------------------------14-16-17--------------
    D------------------------14-16-17----------------------
    A----------------14-15-17------------------------------
    E-14-15-17--------------------------------------


    o modo Lócrio é a repetição do modo jônico uma oitava acima, mas tem uma nota a mais, a primeira (no caso da escala de G)

    ou seja, desse forma é fácil de achar a escala q vc quer, basta saber localizar notas no braço do intrumento, note q as tonicas dos desenhos acima são sempre G, ou seja se vc quiser a escala de D por exemplo é só mudar as tonicas desses mesmos desenhos para D.
    uma outra observação é q na escala de G até da certo ir pela primeira nota do modo jônico para localizar a Tônica mas isso não se estende as outras escalas, por exemplo, na de D, o modo Jônico seria o msm desenho do Frígio na de G com a primeira nota na mizão casa 2, perceba q essa nota é um F# e não um ré.
    então, por isso eu sugiro q vc vá tentando decorar a tônica de cada desenho, espero ter ajudado

    Blade
    Veterano
    # nov/04
    · votar


    essa linha em baixo da última tab ficou incompleta, eu quis dizer q o Lócrio é a repetição do mudo jônico uma oitava acima, essa nota a mais q eu me referi existe so na escala de G, eu não sei explicar o por quê de no modo Jonico de G não ter essa primeira nota q tem no lócrio, já q é um f#, se alguém ae souber explicar...

    BlaCk LaBeL
    Veterano
    # nov/04
    · votar


    Blade
    Cara... acho que você está um pouco confuso nesse assunto. Você está se baseando somente em shapes. Isso até deixa as coisas mais práticas, mas é importante entender o que há por trás disso, para não cair em alguns erros.

    Como falei ali em cima, todos modos derivados de uma escala maior vão ter EXATAMENTE as mesmas notas dessa escala. Sendo assim, os shapes não são tão importantes. O que vai fazê-los soar diferente é a aplicação de cada um.

    Qualquer dúvida, pergunte aí.

    Blade
    Veterano
    # nov/04
    · votar


    BlaCk LaBeL
    então no modo jonico da escala de G tb está correto fazer o F# né? já q essa nota está na escala de G

    BlaCk LaBeL
    Veterano
    # nov/04
    · votar


    Blade
    "então no modo jonico da escala de G tb está correto fazer o F# né?"

    Como assim? Sua dúvida é se a nota F# faz parte dessa escala?

      Enviar sua resposta para este assunto
              Tablatura   
      Responder tópico na versão original
       

      Tópicos relacionados a Me expliquem por favor