Começar do Zero!!! dicas pra mim!!!

    Autor Mensagem
    Thiago ed
    Veterano
    # out/04


    Eu toco a + ou - 1 anu...sei pouco fiz soh uns 4 meses de aula a partir dai naum aprendi nda...

    ontem eu tava vendo tv(naum sei o canal) e tava passanu um show do Celso Salim( www.celsosalim.com )..o cara toca um blues mto massa com mistura de rock e jazz...ai eu percebi q eu naum toco nda(fiquei mto triste até) e decidi começar do zero e treinar mais!!!

    primeiro eu queria q vcs me passasem o seguinte:

    - uma musica com um solo massa, naum dificil soh pra eu começa

    -algumas escalas pra eu começa a toca, umas 3 de começo

    e qndo eu terminar d catar issu eu venhu aki e peço mais coisas...quem puder me ajudar q ja toque bem eu agradeço mto

    quem quiser cata meu msn ou icq:

    thiagoeiidy@hormail.com

    124192291

    Marco_Uber_Alles
    Veterano
    # out/04
    · votar


    Tira Starry Night do Satriani, é só pentatônica e puro "feeling e sentimento". Pega os modos gregos...

    Reverbman
    Veterano
    # out/04
    · votar


    Another Brick in the wall - Pink Floyd - uma musica com um solo massa, naum dificil soh pra eu começa

    Escala de DÓ Maior pela 5ª Corda:

    |-------------------------6-7-8-|
    |--------------/----5-6-7-------|
    |-----------2-4-5-7-------------|
    |-----2-3-5---------------------|
    |-3-5---------------------------|
    |-------------------------------|

    Escala Menor Harmônica:

    |---------------------------4-5-|
    |-----------------------5-6-----|
    |-----------------4-5-7---------|
    |-------------6-7---------------|
    |-------5-7-8-------------------|
    |-5-7-8-------------------------|

    |------------------------------------------SOL#-LÁ-|
    |------------------------------------MI-FÁ---------|
    |---------------------------SI-DÓ-RÉ---------------|
    |-------------------SOL#-LÁ------------------------|
    |----------RÉ-MI-FÁ--------------------------------|
    |-LÁ-SI-DÓ-----------------------------------------|

    Escala Menor Melódica:

    |---------------------------4-5-|
    |-----------------------5-7-----|
    |-----------------4-5-7---------|
    |-----------4-6-7---------------|
    |-------5-7---------------------|
    |-5-7-8-------------------------|

    |----------------------------------------------SOL#-LÁ-|
    |---------------------------------------MI-FÁ#---------|
    |----------------------------SI-DÓ#-RÉ-----------------|
    |----------------FÁ#-SOL#-LÁ---------------------------|
    |----------RÉ-MI---------------------------------------|
    |-LÁ-SI-DÓ---------------------------------------------|

    Soh pra vc treinar um pouquinho... Depois vai no tópico de escalas do cifraclub e treina mais um muncado

    Thiago ed
    Veterano
    # out/04
    · votar


    Marco_Uber_Alles
    Reverbman
    valeu vcs..vou baixa as musicas e cata as escalas..quem quiser manda mais pode manda...

    ahh alguem tem a tab certa de Another Brick in the wall eu tocando nau msai a mesma coisa..mas eu vou treina banstante

    Adrianodevil
    Veterano
    # out/04
    · votar


    Reverbman

    Escala de DÓ Maior pela 5ª Corda:

    |-------------------------6-7-8-|
    |--------------/----5-6-7-------|
    |-----------2-4-5-7-------------|
    |-----2-3-5---------------------|
    |-3-5---------------------------|
    |-------------------------------|


    Tá errado isso aew...

    O certo é:


    |-------------------------5-7-8-|
    |--------------/----5-6-8-------|
    |-----------2-4-5-7-------------|
    |-----2-3-5---------------------|
    |-3-5---------------------------|
    |-------------------------------|


    Guilherme de Almeida
    Veterano
    # out/04
    · votar


    Sweet Child O'Mine. Num tenho a tab e num vo escrever, mas vc vai demorar mto tempo nela e evoluir MTO

    The Guitarrerow
    Veterano
    # out/04
    · votar


    desculpem-me a ignorancia mas oque eh feeling?

    Thiago ed
    Veterano
    # out/04
    · votar


    valeu..mas naum tem uma mais fainha pra começa mesmo..hehhe

    The Hellraiser
    Veterano
    # out/04
    · votar


    The Guitarrerow

    Feeling = Sentimento


    Sentir a música, sentimento músical, não sei explicar... hehe... Saber usar as notas certas no lugar certo... Ah, e feeling não é sinônimo de velocidade, nunca... hehe

    Igor Martins
    Veterano
    # out/04
    · votar


    Thiago ed
    Nao desiste soh pq. tah dificil.... assim q evolui.

    E outra coisa, PRESTE ATENCAO NA DIVISAO DAS NOTAS, qdo tava no inicio inventei de tirar umas musicas +- dificeis (na minha opiniao). Dai soh pq. tinha partes rapidas, fazia a modo doidao. Agora tava vendo as transcricoes delas, e estou ralando para aprender tocar certo, as diferenças eram sutis, mas quem sabe tocar percebe e veh q tah fazendo feio. E depois q jah sabe para reeducar eh complicado...

      Enviar sua resposta para este assunto
              Tablatura   
      Responder tópico na versão original
       

      Tópicos relacionados a Começar do Zero!!! dicas pra mim!!!