My Immortal-Evanescence e Behind Blue Eyes-Limp Bi

    Autor Mensagem
    paulafanaia
    Veterano
    # jul/04


    Alg. sabe como faz os dedilhados das músicas My Immortal e Behind Blue Eyes?

    Homem Cueca
    Veterano
    # jul/04
    · votar


    fazendo...a a lendo mais não são nenhum bicho de 7 cabeças, nem 1/2 cabeça chega a ser em dificuldade...Vai tentando de várias maneiras...

    Brown
    Veterano
    # jul/04
    · votar


    Behind Blue Eyes:


    e----------0----------------0------------------0--------
    B--------0---0---0--------3---3---3------3-------3---3--
    G------0-------0--------0-------0------2---2-------2----
    D------------------------------------0------------------
    A----2----------------2---------------------------------
    E--0----------------3-----------------------------------



    e-----------0------------------0----------------0---------
    B------3------3---3-------1------1----------1-----1---1---
    G----2---2------2-------0---0------0------0---0-----0-----
    D--0------------------------------------------------------
    A---------------------3-----------------3-----------------
    E---------------------------------------------------------



    e-------------0-----------------0------------------------
    B-------0-------0---0------0------0---0------------------
    G-----2---2-------2------2---2------2--------------------
    D--------------------------------------------------------
    A---0------------------0---------------------------------
    E--------------------------------------------------------


    No começo vc faz uma posição parecida com o Sol "G". blz :P

    Brown
    Veterano
    # jul/04
    · votar


    ops, esqueci de separar as tabs, é só olhar nos nomes das cordas.... :P

    Polêmico
    Veterano
    # jul/04
    · votar


    paulafanaia
    Nossa,naum tem segredo essas musicas,dedilhado vc tem q fazer do jeito q vc achar mais simples,naum precisa nem montar o acorde pra dedilhar as vezes,e nessas musicas assim então nem ce fala,mto faceis.

    Reinken_o Organista
    Veterano
    # jul/04
    · votar


    pelamordedeus, Behind Blues Eyes é do THE WHO!!!

    NowhereMan
    Veterano
    # jul/04
    · votar


    e----------0----------------0------------------0--------
    B--------0---0---0--------3---3---3------3-------3---3--
    G------0-------0--------0-------0------2---2-------2----
    D------------------------------------0------------------
    A----2----------------2---------------------------------
    E--0----------------3-----------------------------------




    e-----------0------------------0----------------0---------
    B------3------3---3-------1------1----------1-----1---1---
    G----2---2------2-------0---0------0------0---0-----0-----
    D--0------------------------------------------------------
    A---------------------3-----------------3-----------------
    E---------------------------------------------------------




    e-------------0-----------------0------------------------
    B-------0-------0---0------0------0---0------------------
    G-----2---2-------2------2---2------2--------------------
    D--------------------------------------------------------
    A---0------------------0---------------------------------
    E--------------------------------------------------------


    fica melhor separado.

    Spectrum
    Veterano
    # jul/04
    · votar


    Reinken_o Organista
    eh do The Who sim mas agora o Limp Bizkit regravou!

    paulafanaia
    Veterano
    # jul/04
    · votar


    Eu tô perguntando como faz o dedilhado pq eu ñ tenho aula, eu tô aprendendo sozinha. Aí eu ñ conheço nenhum dedilhado p/ fazer.

    paulafanaia
    Veterano
    # jul/04
    · votar


    Valeu NowhereM
    ---------------//---------------------
    Alg sabe a do Evanescence(MY IMMORTAL)?

    Zadh
    Veterano
    # jul/04
    · votar


    paulafanaia

    Eu não sei, pergunte para o pessoal do teclado.

    Reinken_o Organista
    Veterano
    # jul/04
    · votar


    Spectrum
    é, infelizmente. Mas a versao do The Who eh beeem melhor, eu ouvi a do Limp Bizkit e eles simplesmente naum transmitem o mesmo sentimento da letra.

    gjsuzigan
    Veterano
    # jul/04
    · votar


    paulafanaia

    Verso My Immortal

          A                         C#m
    
    e--------------------------|---------------------------|
    B------------2-------------|-----------------5---------|
    G--------2------2----------|-----------6---------------|
    D------2---2-------2--2----|--------6-----6------------|
    A----0---------------------|-----4---------------------|
    E--------------------------|---------------------------|


        A9                              C#m
    
    e---------------------------|--------------------------|
    B---------------0-----------|----------------5---------|
    G---------2--------2--------|----------6---------------|
    D------2-----2--------------|-------6-----6------------|
    A---0-----------------------|----4---------------------|
    E---------------------------|--------------------------|



    Esta certa, fui eu que tirei....

    gjsuzigan
    Veterano
    # jul/04
    · votar


    Mas eu tirei na guitarra mesmo...

      Enviar sua resposta para este assunto
              Tablatura   
      Responder tópico na versão original
       

      Tópicos relacionados a My Immortal-Evanescence e Behind Blue Eyes-Limp Bi