!!!VAN HALEN!!!

Autor Mensagem
Agente Smith
Veterano
# mar/04


Ae epssoal! No inicio do mes comprei o cd "The best of VH vol. 1", e ja até tirei umas coisas, e vou postar umas infos sobre equips. tabs, etc. Pf, contribuam caras Valeu!

Agente Smith
Veterano
# mar/04
· votar


Running With The devil
 Riff principal ( fafinado Eb)

e------------------------------------------------------
B---5---7---x-x-7--8p7--11-9--------------------------------
G---5---7---x-x-7--7----9--9--------------------------------
D---5---7---x-x-7--9p7--11-9--------------------------------
A-----------------------------x-x-/12\--------------------
E------------------------------------------------------


Agente Smith
Veterano
# mar/04
· votar


 Ain't  talkin 'bout love (intro eb)

e--------------1-----3-----------------------------------
B------------1---1-----1----------------------------------
G------2-----------2-----2--------------------------------
D----2---2-----------------------------------------------
A--0------------------------2-3~--3-2-3-------------------
E------------------------------------------------------
pm----------------------->


Agente Smith
Veterano
# mar/04
· votar


      Panama(lick harm natural eb)


e---0-----0-----5*----5*--------------------------------
B-----4-----4-----4*----4*---4*-4*-4*-4*-4*-4*-4*-----------
G-------4-----4-----4*--- 4*-4*-4*-4*-4*-4*-4*-4*-----------
D------------------------------------------------------
A------------------------------------------------------
E------------------------------------------------------
pm------------->


Agente Smith
Veterano
# mar/04
· votar


UP DENOVO(parece que aqui ninguem gosta de van halen:

Dogs
Veterano
# mar/04
· votar


Eu adoro
Valew, esse tópico é muito bom

ivhv
Veterano
# mar/04
· votar


tambem gosto de Van Halen

Agente Smith
Veterano
# mar/04
· votar


Dogs
ivhv, ae caras, vamos postar ae, licks que 6 tiraram, equip, uns exercicios bons para evoluir nesse tipo de solo(tapping,2hands).
logo eu postarei o solo de panama , qie meu professot ta me ajudando a tirar ( logo depois do lick klassico de penta, , at'e a parte que o solo acalma.

Dogs
Veterano
# mar/04
· votar


Mais tarde eu posto o riff inicial de Unchained

Agente Smith
Veterano
# mar/04
· votar


Dogs, falo, to fazendo uma tab de "aitalkiaboutlove", posto ou amanha anoite, ou domingo a tarde.

Dogs
Veterano
# mar/04
· votar


Agente Smith
flw

pagode nem morto
Veterano
# mar/04
· votar


Agente Smith

Bem legal.

Agente Smith
Veterano
# mar/04
· votar


pagode nem morto, valeu kra, posta ae alguma coisa que c saiba sobre vanhalen!

Homem Cueca
Veterano
# mar/04
· votar


faltou o lick inicial de panama!

new guy
Veterano
# mar/04
· votar


aí agente smith, eu comprei esse cd também há umas 2 semanas eu acho, poh kra, eu até ajudaria mas eu acho difícil pra kcete tirar essas músicas assim de ouvido.

pagode nem morto
Veterano
# mar/04
· votar


Agente Smith

Nossa kra, eu sô mto fã de Van Halen

canilupi
Veterano
# mar/04
· votar


eu nao gostio :]
Vida longa ao Véi Angelo :]

crowley666
Veterano
# mar/04
· votar


Agente Smith
vc quer dicas de equipo? EVH wolfgang, mxr phaser 90 e peavey 5150

pagode nem morto
Veterano
# mar/04
· votar


Agente Smith

O q eu sei de Van Halen é a músia Ain't Talkin' 'Bout Love.

Dogs
Veterano
# mar/04
· votar


canilupi
eu nao gostio :]
Vida longa ao Véi Angelo :]


Aff

canilupi
Veterano
# mar/04
· votar


Dogs
q maneh aff so da po p , véi angelo eh fodao ;]

Dogs
Veterano
# mar/04
· votar


canilupi
q maneh aff so da po p , véi angelo eh fodao ;]

Fodão ele não é, mas melhor que esses outros shredders isso ele é e muito melhor.

canilupi
Veterano
# mar/04
· votar


Dogs
mas melhor que esses outros shredders isso ele é e muito melhor.
:]
Fodão ele não é
por?

Dogs
Veterano
# mar/04
· votar


canilupi
por?

pq??

Pq não, pra mim ele é simplesmente o melhor shredder, e não um excelente guitarrista.

canilupi
Veterano
# mar/04
· votar


Dogs
pra mim ele é simplesmente o melhor shredder, e não um excelente guitarrista.

Rá , intao , pra ti ele nao eh.
assim como pra mim van hallen nao eh fodao.
mas na verdade os dois sao.

Dogs
Veterano
# mar/04
· votar


Então tá, os dois são.
FIM

Agente Smith
Veterano
# mar/04
· votar


Up! Ae caras, eu tinha acabado de fazer a tab inteirinha nos minimos detalhes, mas qndo eu fui salva zuou, vo ter que fazer a tab denovo! Mas eu ainda posto aqui esssa tab filhadaputa!

John Andrade
Veterano
# mar/04
· votar


Eu tenho o book do Best Of, mas é impresso. fica foda de passar tudo pra vocês, mas qquer coisa, duvida em algum lick, perguntem que eu tento ajudar.

crowley666
Veterano
# mar/04
· votar


Dogs
canilupi
van halen e véi angelo saum dois bosta! bom eh o jason becker (soh pra por mais um na briga hehhe)

Agente Smith
Veterano
# mar/04
· votar


John Andrade, poxa cara! Se tem tipo o resto do solo de panama depois de :


e-----7-7------------------------------------------------
B-----7-7-...-----------------------------------------------
G--9b----------------------------------------------------
D------------------------------------------------------
A------------------------------------------------------
E------------------------------------------------------
e antes de ficar lento?

e------------------------------------------------------
B------------------------------------------------------
G------------------------------------------------------
D------------------------------------------------------
A----9h10p9----9-----------------------------------------
E-----------10---10\7...----------------------------------------


Enviar sua resposta para este assunto
        Tablatura   
Responder tópico na versão original
 

Tópicos relacionados a !!!VAN HALEN!!!