Troca de tabs

    Autor Mensagem
    Morticia
    Veterano
    # mar/04


    Troca de tabs

    Morticia
    Veterano
    # mar/04
    · votar


    alguem ai tem a tab de powerslave do iron e de pet semetary do ramones..
    so q eu queria do guitar pro(certa)

    Gab
    Veterano
    # mar/04
    · votar


    Num é guitar pro , mas essa tab de powerslave tah quase certa:
    Tablatura para guitarra
    
    Iron Maiden
    Disco: Powerslave (1984)
    Música: Powerslave


    Legend:
    h: hammer on
    p: pull off
    b: bend
    br: bend and release
    /: slide

    Intro/Verse

    ---------------------------------------------------------------------- ------------
    ---------------------------------------------------------------------- ------------
    ---------------------------------------------------------------------- ------------
    ---------------------------------------------------------------------- ------------
    -7-----------------------10----------------------8-7------------------ ------10----
    -5--5-5-5--5-5-5--5-5-5--8--5-5-5--5-5-5--5-5-5--6-5--5-5-5--5-5-5---5 -5-5--8-----

    ---------------------------
    ---------------------------
    ---------------------------
    ---------------------------
    ---5-4-5-7-5h7p5-4h5p4-----
    -5---------------------6---

    Pre-chorus

    --------------------------------------------
    -5/13---9/10-9----6----5/13---9/10--9---6---
    --------------------------------------------
    -2/10---6/7--6----3----2/10---6/7---6---3---
    --------------------------------------------
    --------------------------------------------

    Tell me why I had to be....
    Chorus

    ---------------------------------------------------------------------- ----
    ---------------------------------------------------------------------- ----
    -9--5--7-------------------------------------------------------------- ----
    -9--5--7-------------------------------------------------------------- ----
    -7--3--5-------------------------------------------------------------- ----
    ----------3p0-0-0-0--0-0-3p0--0-0-0-0-0-0h2-2-2-2h3-3-3-3h5-5-5-5-3-2- 0---

    pre-solo

    -0----------------------------------
    -0----------------------------------
    -0----------------------------------
    -2----------------------------------
    -2----------------------------------
    -0----------------------------------

    (clean sound)

    --------------------------------
    -----3-------3-------3----------
    -------4-------4-------4--------
    ---4-------4-------4------------(repeat)
    -2-------2-------2-------2--0---
    --------------------------------

    guitar solo 1

    ---------------------------------------------------------------------- ------------
    -5/7-5h7p5/3/2--3p2~~~--2h3p2----------------------------------------- ----10/12---
    --------------------------------4/2/4---6-7-9-9br-p7/6h7p6---------7-9 br-7--------
    ------------------------------------------------------------9---7-9--- ------------
    --------------------------------------------------------------9------- ------------
    ---------------------------------------------------------------------- ------------

    ------------------------------------------------------------9-10-9h10p 9-----------
    -10h12p10--7h10p7-----------------------------------10-12------------- -12-10-12---
    -------------------9-7h9p7/6---6/4--4----------9/11------------------- ------------
    ------------------------------9-------------7-9----------------------- ------------
    ------------------------------------------9--------------------------- ------------
    ---------------------------------------------------------------------- ------------

    -9-10-12-10-9h10p9------------------------------------------------10-9 h10p9----------
    --------------------10---------------------------------------10-12---- -------12-10---
    -----------------------9/7-9br-7h9p7-6h7p6/4---------7-9/11----------- ---------------
    --------------------------------------------------7-9----------------- ---------------
    ------------------------------------------------9--------------------- ---------------
    ---------------------------------------------------------------------- ---------------

    -12b--12bp10-9h10p9--------------------------------------------------- ----------------
    ---------------------12----------------14h15-17-15-14h15p14-----15-14h 15p14-----------
    --------------------------------14h16-------------------------16------ --------16-14---
    --------------------------14/16--------------------------------------- ----------------
    ---------------------------------------------------------------------- ----------------
    ---------------------------------------------------------------------- ----------------

    --------------14-15-17-17br-17b-----17-15-14h15p14------14-15-17-15-14 h15p14------
    ----14-15-17-----------------------------------------17--------------- -------17---
    -16------------------------------------------------------------------- ------------
    ---------------------------------------------------------------------- ------------
    ---------------------------------------------------------------------- ------------
    ---------------------------------------------------------------------- ------------

    -14h15p14----------------------------------------------------7-------- -7-------
    -----------17-15-14h15p14-------------------------------------10----7- --10p7---
    ---------------------------16-14----------------------------------9b-- ---------
    ---------------------------------16-15-14/12-14p12-14p12-------------- ---------
    ---------------------------------------------------------------------- ---------
    ---------------------------------------------------------------------- ---------

    -----------------------------------
    -----------------------------------
    -9p7-9-7---------------------------
    ---------9-7-9/--------------------
    -----------------------------------
    -----------------------------------

    Solo rhythm

    --------------------------------------------------------------------
    --------------------------------------------------------------------
    --------------------------------------7-7-7-----2-----2-----2-2-2---
    -4---4----4-4----4--4-----4--4----5---7-7-7-----2-----2-----2-2-2---
    -2-0-2--0-2-2--0-2--2--0--2--2-0--5---5-5-5-----0-----0-----0-0-0---
    ----------------------------------3----------------3------3---------

    Harmony interlude

    ---------------------------------------------------------------------- ---------
    ---------------------------------------------------------------------- ---------
    ---------------------------------------------------------------------- ---------
    -------4-5-4--------------4-5-4---7/9-7~~-----7-9-7h9p7--------------- -4-5-4---
    -5~~-7-------7-4-5~~---7-------7-----------10-----------10-7-9~~--5-7- ---------
    ---------------------------------------------------------------------- ---------

    -----------------------------------
    -----------------------------------
    -----------------------------------(repeat)
    -----------------------------------
    -7-4-5~~---------------------------
    -----------------------------------

    Solo outro

    ------------------------------------------
    ------------------------------------------
    -10-9----8-7---5-4------------------------
    -10-9----8-7---5-4---5-2------------------
    --8-7----6-5---3-2---5-2------------------
    ---------------------3-0------------------

    Outro to song
    Slave to the power of death....

    ----------------------------------------------------------------------
    ----------------------------------------------------------------------
    -5--7--------------------------------------5-7-7-7-9------------------
    -5--7--------------------------------------5-7-7-7-9-(trem picking)---
    -3--5--------------------------------------3-5-5-5-7------------------
    --------3p0-0-0-0-0---0-0-3p0-0-0-0-0-0-------------------------------

    ----------------------------------------------------------------------------------
    -----------------------5/6--5/6---9/6---9-10--13--12/13/12-10--9/10/9--6/9/6--5---
    ----------------------------------------------------------------------------------
    ----------------3--3---2/3--2/3---6/3---6-7---10---9/10/9---7--6/7/6---3/6/3--2---
    ----------------3--3--------------------------------------------------------------
    -5-4-5-7-5-4----1--1--------------------------------------------------------------

    -----------------------------------
    -----------------------------------
    --9/-------------------------------
    --9/-------------------------------
    --7/-------------------------------
    -----------------------------------







    Morticia
    Veterano
    # mar/04
    · votar


    essa eh daki do cifraclub?

    Cyber Vegeta
    Veterano
    # mar/04
    · votar


    opa, aproveitando o topico..
    eu queria a tab, ou cifra, de what i like about you
    alguem tem ae?

    Gab
    Veterano
    # mar/04
    · votar


    Pet Cematery

    Da pra tirar de ouvido mas aqui vai a tab + ou - erradfa, hehehe:
    Ramones     
    
    .música Pet Sematary
    .info Acessos: 16019 Nota dos usuários: 6.13 avalie esta transcrição ->nota 10nota 9nota 8nota 7nota 6nota 5nota 4nota 3nota 2nota 1nota 0

    Versão 1
    -======-

    INTRO
    D5 C/E
    e|----------------------|--------------------------------------------- -|
    B|-----3----------1-----|-----1--------------------------------------- -|
    G|-------------0-----0--|--------------------------------------------- -|
    D|--0-----0-2-----------|--3------------------------------------------ -|
    A|----------------------|--------------------------------------------- -|
    E|----------------------|--------------------------------------------- -|


    For the part below I'm only indicating the chords. Pick the CD and follow
    the beat. This part repeats with different lyrics in all verses.

    C5 D5
    And the night when the cold wind blows

    C5 D5 Bb5 C
    No one cares No-body knows


    For the chorus below you just have to follow the beat as well.


    Dm F C Bb
    I don't wanna be buried In a pet sematary

    Dm C Bb C
    I don't want to live my life again


    Here's the solo (It seems to me there's a slight synth doubling the
    guitar. Am I right?)
    I'm also tabbing the rythm behind the solo in case you have a buddy
    playing along with a second guitar.

    e|------------|------------|------------|------------|------------|--- ------|
    B|-----______-|------------|------------|------------|-----______-|--- ------|
    G|----/-------\------------|------------|------------|----/-------\--- ------|
    D|---/--------|\-----------|--0---------|--0--2--3---|---/--------|\-- ------|
    A|--1---------|-1----------|------------|------------|--1---------|-1- ------|
    E|------------|------------|------------|------------|------------|--- ------|
    |
    | Bb5 A5 D5 Bb5 A5
    e|------------|------------|------------|------------|------------|--- ------|
    B|------------|------------|------------|------------|------------|--- ------|
    G|------------|---Repeat---|----7-------|---Repeat---|------------|--R epeat-|
    D|-8-8-8-7/8-8|-----as-----|----7-------|---the D5---|-8-8-8-7/8-8|--the----|
    A|-8-8-8-7/8-8|---previous-|----5-------|------------|-8-8-8-7/8-8|--B b5 &--|
    E|-6-6-6-5/6-6|------------|------------|------------|-6-6-6-5/6-6|--A 5-----|


    e|------------|------------|-------______------------|------------|--- ------|
    B|------------|------------|-----/------|\-----------|------------|--- ------|
    G|------------|------------|---/--------|--\---------|------------|--- ------|
    D|------------|--5--3--2---|--3---------|---3--------|------------|--- ------|
    A|-3----------|--7--5--3---|--5---------|---5--------|------------|--- ------|
    E|------------|------------|------------|------------|------------|--- ------|
    |
    | C5
    e|------------|------------|------------|------------|------------|--- ------|
    B|------------|------------|------------|------------|------------|--- ------|
    G|--5---------|--Repeat----|--Here the second guitar goes---------|---------|
    D|--5---------|--the C5----|--back to the verse------|------------|---------|
    A|--3---------|------------|------------|------------|------------|--- ------|
    E|------------|------------|------------|------------|------------|--- ------|


    Chord fingering (where not indicated)

    C5 D5 Bb5 Dm F C Bb
    e|------|------|-----|--10--|---8--|---8--|--6--|------|
    B|------|------|-----|--10--|--10--|---8--|--6--|------|
    G|------|------|-----|--10--|--10--|---9--|--7--|------|
    D|--10--|--12--|--8--|--12--|--10--|--10--|--8--|------|
    A|--10--|--12--|--8--|--12--|---8--|--10--|--8--|------|
    E|---8--|--10--|--6--|--10--|------|---8--|--6--|------|


    Finally the Lyrics

    Under the arc of a weather stain boards
    Ancient goblins, and warlords
    Come out of the ground, not making a sound
    The smell of death is all around.

    And the night when the cold wind blows
    No one cares, nobody knows

    I don't wanna be buried
    In a pet sematary
    I don't want to live my life again

    Follow Victor to the sacred place
    This ain't a dream, I can't scape
    Molars and fangs, the clicking of bones
    Spirits moaning among the tombstones

    And the night, when the moon is bright
    Someone cries, something ain't right

    The moon is full, the air is still
    All of a sudden I feel a chill
    Victor is grinning, flesh rotting away
    Skeletons dance, I curse this day

    And the night, when the wolves cry out
    Listen close and you can hear me shout


    _______________________________________________________
    Contribuição: Valdir de Sousa Farias(vfarias@ieg.com.br)




    Versão 2
    -======-


    Intro & Versos:

    D5 C/E
    e|------------------------------|
    B|-----3-----------1---------1--|
    G|--------------0-----0---------| [ 2x para a introdução ]
    D|--0-----0--2------------3-----| [ e 1x para cada linha do verso ]
    A|------------------------------| [ ou: D E F ]
    E|------------------------------|


    [VERSO 1]

    [ riff ]
    Under the arc of a weather stain boards
    Ancient goblins, and warlords
    Come out of the ground, not making a sound
    The smell of death is all around

    [PONTE 1]
    C D
    And the night when the cold wind blows
    C D Bb C
    No one cares, no-body knows


    [REFRÃO] 2x
    D F C Bb
    I don't wanna be buried in a pet semetary
    D C Bb C
    I don't want to live my life again



    [VERSO 2]

    [ riff ]
    Follow Victor to the sacred place
    This ain't a dream, I can't escape
    Molars and fangs, the clicking of bones
    Spirits moaning among the tombstones

    [PONTE 2]
    C D
    And the night, when the moon is bright
    C D Bb C
    Someone cries, something ain't right


    [REFRÃO] 2x
    D F C Bb
    I don't wanna be buried in a pet semetary
    D C Bb C
    I don't want to live my life again

    [SOLO]

    Bb D Bb C
    e|--------------------------------------------|
    B|--------------------------------------------|
    G|--------------------------------------------|
    D|-------0----0--2--3-------------5--3--2-----|
    A|--1-------------------1----3----7--5--3-----|
    E|--------------------------------------------|


    [VERSO 3]

    [ riff ]
    The moon is full, the air is still
    All of a sudden I feel a chill
    Victor is grinning, flesh rotting away
    Skeletons dance, I curse this day

    [PONTE 3]
    C D
    And the night, when the wolves cry out
    C D Bb C
    Listen close and you can hear me shout


    [REFRÃO] 2x
    D F C Bb
    I don't wanna be buried in a pet semetary
    D C Bb C
    I don't want to live my life again . . .


    [FINAL]

    'Não consegui entender bem os acordes do final porque tem um pianinho
    que fica tocando algo do tipo:

    D|-0--2-3-5-0--7-5-3-0--| TAB

    Aliás no refrão também, o que me leva a concluir que seriam os acordes
    deste até desaparecer...'

    D F C Bb /
    Oh no, oh oh no... /
    D C Bb C 3 vezes no total...
    I don't want to live my life...again...




    _______________________________________________________
    Contribuição: Álvaro(alvarocobain@hotmail.com)








    ©1996-2003 cifraclub.com.br | todos os direitos reservados



    Gab
    Veterano
    # mar/04
    · votar


    Nao, morticia, eu catei num site que vem todas as tabs o iron zipadas, mas acabo tirando algumas coisas de ouvido mesmo... mas é uma versao não zuada da que tem aqui no cifraclub.

    Morticia
    Veterano
    # mar/04
    · votar


    ah sim thanks :x

    Morticia
    Veterano
    # mar/04
    · votar


    mas tem alguma boa aew do metallica?

    Morticia
    Veterano
    # mar/04
    · votar


    de quem eh essa what i like about you

    Cyber Vegeta
    Veterano
    # mar/04
    · votar


    Morticia
    lillix

    Cyber Vegeta
    Veterano
    # mar/04
    · votar


    lillix

    Cyber Vegeta
    Veterano
    # mar/04
    · votar


    opa.. desculpe por ter postado 2 vezes...... falha minha aki

    GrungeMan
    Veterano
    # mar/04
    · votar


    aproveitando a onda aee...
    alguem tem a tab completa de Watching Over Me do Iecd Earth ..
    eu soh tirei algumas partes.. o resto é moh foda..

      Enviar sua resposta para este assunto
              Tablatura   
      Responder tópico na versão original
       

      Tópicos relacionados a Troca de tabs