Meu Primeiro Blues(Dêem sua opinião)

    Autor Mensagem
    Eduardo
    Veterano
    # fev/03


    Esse é o meu primeiro blues acabei de compor quero q vcs dêem sua opinião:

    |------------------|----------------|--------------------|5---------- -------|
    
    |-5-8-5------------|5---------------|5-------------------|--8-5------ -------|
    |--------8-5-7-5---|--8-5-7-----5---|--7-5------5-7s9----|-------7-5- -------|
    |------------------|---------7-5----|--------7-----------|----------- -7-5---|
    |------------------|----------------|--------------------|----------- ------5|
    |------------------|----------------|--------------------|----------- -------|

    |---------------|----------------------|------------------|---------- ------|
    |---------------|----------------------|-5-8-5------------|5--------- ------|
    |-----7----7--5-|7-5-----------5-7s9---|--------8-5-7-5---|--8-5-7--- --5---|
    |5-7----5-------|-----7--5-7-----------|------------------|---------7 -5----|
    |---------------|----------------------|------------------|---------- ------|
    |---------------|----------------------|------------------|---------- ------|


    Eduardo
    Veterano
    # fev/03
    · votar


    A 4ª parte fico meio se alguén quisé eu tenho gravado daí eu mando por e-mail

    ThorRodolfo
    Veterano
    # fev/03
    · votar


    vc tem pra guitar pro???

    Eduardo
    Veterano
    # fev/03
    · votar


    não tenho sempre q eu tento passa pro guitar pro eu não consigo acerta o ritmo

    Aqualung
    Veterano
    # fev/03
    · votar


    As 4 primeiras partes taum ótimas... eu acho q vc poderia melhorar as outras...

    Eduardo
    Veterano
    # fev/03
    · votar


    ae aqualung quem sabe é pq vc naum ouviu no ritmo q eu fiz se quisé te mando por e-mail do jeito q eu gravei

    Energy
    Veterano
    # fev/03
    · votar


    manda pra mim joaos@linkway.com.br

    Energy
    Veterano
    # fev/03
    · votar


    manda pra mim joaos@linkway.com.br

    Eduardo
    Veterano
    # fev/03
    · votar


    Taí a versão certa e energy ja te enviei o e-mail:

    |-5-8-5------------|5---------------|5-------------------|--5--------- --------|
    
    |--------8-5-7-5---|--8-5-7-----5---|--7-5------5-7s9----|-----8-5--- ---------|
    |------------------|---------7-5----|--------7-----------|----------7 -5------5|
    |------------------|----------------|--------------------|----------- ----7-5--|
    |------------------|----------------|--------------------|----------- ---------|

    |---------------|----------------------|------------------|---------- ------|
    |---------------|----------------------|-5-8-5------------|5--------- ------|
    |-----7----7--5-|7-5-----------5-7s9---|--------8-5-7-5---|--8-5-7--- --5---|
    |5-7----5-------|-----7--5-7-----------|------------------|---------7 -5----|
    |---------------|----------------------|------------------|---------- ------|
    |---------------|----------------------|------------------|---------- ------|


    guitartrek
    Veterano
    # fev/03 · Editado por: guitartrek
    · votar


    Eduardo
    Manda prá mim tambem
    Não tenho speedy, é muito grande ?

    Eduardo
    Veterano
    # fev/03
    · votar


    puta ***** errei denovo
    agora ta realmente certo


    |------------------|------------------|------------------|
    |-5-8-5------------|5-----------------|5-----------------|
    |--------8-5-7-5---|--8-5-7-----5-----|--7-5------5-7s9--|
    |------------------|---------7-5------|--------7---------|
    |------------------|------------------|------------------|
    |------------------|------------------|------------------|

    |5-----------------|---------------|----------------------|
    |--8-5-------------|---------------|----------------------|
    |-------7-5-------5|-----7----7--5-|7-5-----------5-7s9---|
    |------------7-5---|5-7----5-------|-----7--5-7-----------|
    |------------------|---------------|----------------------|
    |------------------|---------------|----------------------|

    |------------------|------------------|
    |-5-8-5------------|5-----------------|
    |--------8-5-7-5---|--8-5-7-----5-----|
    |------------------|---------7-5------|
    |------------------|------------------|
    |------------------|------------------|


    fear_of_the_dark
    Veterano
    # fev/03
    · votar


    pow maneiro!!

    guitartrek
    Veterano
    # fev/03
    · votar


    Eduardo
    pô nem wav, nem mp3, até agora não me mandou nada...
    ok, esquece, deixa prá lá...

    strubs
    Veterano
    # fev/03
    · votar


    ou ta massa ou quais sao as escalas do blues!

    Eduardo
    Veterano
    # fev/03
    · votar


    Guitartrek vc nem deu seu e-mail
    Strubsé só pentatonica hehehe

    guitartrek
    Veterano
    # fev/03
    · votar


    se vc observar o cabeçalho da minha mensagem que vem antes do seu ultimo acerto, vai ver: Editado por: guitartrek
    apos vc enviar o seu ultimo acerto, eu editei a minha mensagem e removi o email, porque, naturalmente, vc já havia lido ela.
    mas tudo bem.
    sem problemas.

    Overdoser
    Veterano
    # fev/03
    · votar


    gosto desse que fiz:

    tom: G

    ---------------------------------------------------
    ---------------------------------------------------
    ------------3-5-5h6p5-3------------------------
    --------3-5-------------5-3-------------------
    --3-4-5---------------------5-4-3-----------------
    -----------------------------------6p3-1-1/3----------



    Eduardo
    Veterano
    # fev/03
    · votar


    guitartrek não eu não li o seu e-mail pq provavelmente não tava no forum mas se quiser posso te mandar é só colocar seu e-mail

    Johnny
    Veterano
    # fev/03
    · votar


    Achei legalzinho Eduardo! Mas tente fazer umas modulações! Evitar o tom de Lá menor! Tipo eu acho massa quando começa ficar entre blues e jazz!

    CPM
    Veterano
    # fev/03
    · votar


    Eduardo manda pra min que eu quero ver como ficou meu e-mail e Rodrigoregino@bol.com.br

    fear_of_the_dark
    Veterano
    # fev/03
    · votar


    manda pra mim tbm! meu e-mail dr_pimenta@hotmail.com

    Thiago
    Veterano
    # fev/03
    · votar


    Manda pra mim? bass16@bol.com.br
    Valew!!!

      Enviar sua resposta para este assunto
              Tablatura   
      Responder tópico na versão original
       

      Tópicos relacionados a Meu Primeiro Blues(Dêem sua opinião)