como vocês fazem os power chords?

Autor Mensagem
John Guga Mendes
Veterano
# nov/09


Vocês usam o indicador e o mínimo ou o indicador e o anelar?
Eu gosto mais de usar o mínimo, pq quando eu preciso da oitava que fica embaixo da quinta é só deitar o dedo e fazer uma minipestana, além de ficar mais fácil de sair de um power chord para um acorde sus4 quando o baixo principal do acorde fica na primeira ou para um acorde natural maior quando o baixo fica na corda Lá. Mas às vezes eu uso o indicador e o anelar para fazer aquele acorde de tônica+6 ou t+7.

Eu reparei que alguns guitarristas dos anos 70 tbm fazem isso, como o Jimmy Page e o Ritchie Blackmore.

Será que isso é um vício que eu deveria perder?

joaormrt
Veterano
# nov/09
· votar


eu uso o anelar

qd eu preciso da oitava, uso o mínimo, e qd eu preciso daquela outra nota q nao sei o nome:


e------------------------------------------------------
B------------------------------------------------------
G------------------------------------------------------
D---------7---p9------------------------------------------
A---------5---------------------------------------------
E------------------------------------------------------


uso o minimo tbm, acho mais pratico...mas sei la...

thegreen-eyedmonster
Veterano
# nov/09
· votar


John Guga Mendes

Eu faço assim:

Dedo indicador na Tônica, dedo Anelar na quinta e dedo mindinho na oitava. Peguei mania de tocar assim.

Codinome Jones
Veterano
# nov/09
· votar


Eu sinto mais firmeza usando o anelar tbm.

TappingBOY
Veterano
# nov/09 · Editado por: TappingBOY
· votar


Eu faço assim
Sem o anelar '' pra min o anelar é o dedo 2 ''

guitar.thrasher
Veterano
# nov/09
· votar


depende:
quando faço tonica+quinta. uso indicador e minimo.
qundo faço tonica+quinta+oitava. uso indicador anelar e minimo.

busterchair
Veterano
# nov/09
· votar


indicador e mindinho

Headstock invertido
Veterano
# nov/09
· votar


indicador na tonica e mindinho na quinta
mais que isso é baitolagem hehe \m/_

CrenteLouco
Veterano
# nov/09
· votar


TappingBOY
Sem o anelar
?

TappingBOY
Veterano
# nov/09
· votar


CrenteLouco
o anelar não é o dedo 2 ??? kkkk
Ou o 3 ??
oO

jacksonfive
Veterano
# nov/09
· votar


John Guga Mendes

e------------------------------------------------------
B------------------------------------------------------
G------------------------------------------------------
D------------------------------------------------------
A----3--------------------------------------------------
E-1-----------------------------------------------------

ai desse a palheta sem dó

CrenteLouco
Veterano
# nov/09
· votar


TappingBOY
ahauhauah
É o que você usa a aliança de casamento.
=P

TappingBOY
Veterano
# nov/09
· votar


CrenteLouco
no 2 ue ! que eu saiba. srs

CrenteLouco
Veterano
# nov/09 · Editado por: CrenteLouco
· votar


TappingBOY
Conte: Dedo 1 (Indicador); Dedo 2 (Médio); Dedo 3 (Anelar); Dedo 4 (Mínimo)
=)

hughet
Veterano
# nov/09
· votar


--------|---------|---3----|
--------|---------|---3----|
---1---|---------|---------|
---1---|---------|---------|
obs: esqueci o nome desse tipo de power chord
ou
--------|---------|---3----|---------
--------|---------|---3----|---------
---1---|---------|---------|---------
ou
--------|---------|---4----|---------
--------|---------|---3----|---------
---1---|---------|---------|---------

Headstock invertido
Veterano
# nov/09
· votar


o negocio é afinar o mizão um tom abaixo e usar só o indicador >:)


e------------------------------------------------------
B------------------------------------------------------
G------------------------------------------------------
D--1----------------------------------------------------
A--1----------------------------------------------------
E--1----------------------------------------------------


Guynho
Veterano
# nov/09 · Editado por: Guynho
· votar


Eu faço assim: Indicador = Tonica, Anelar= Quinta, Mindinho= Oitava...

Assim: Power Chord C


e------------------------------------------------------
B------------------------------------------------------
G--5---------------------------------------------------
D--5---------------------------------------------------
A--3--------------------------------------------------
E------------------------------------------------------


xl30n4rd0x
Veterano
# nov/09
· votar


Com os dedos

Iommi Young
Veterano
# nov/09
· votar


o negocio é afinar o mizão um tom abaixo e usar só o indicador >:)


e------------------------------------------------------
B------------------------------------------------------
G------------------------------------------------------
D--1----------------------------------------------------
A--1----------------------------------------------------
E--1----------------------------------------------------


Headstock invertido


Sempre tive duvida nessa afinação e outras, e queria tirar duvidas...

sobre a afinação em D eu tenho que afinar a 6ª com o mesmo som da 4ª?

xl30n4rd0x
Veterano
# nov/09
· votar


voce tem afinador Iommi Young?

xl30n4rd0x
Veterano
# nov/09
· votar


Iommi Young
tipo... 4ª corda é o D só que acima... pra afinar a 6ª em D é o D de um tom abaixo

Headstock invertido
Veterano
# nov/09
· votar


Iommi Young
exato, normalmente ela é afinada em Mi, daí você afina ela um tom abaixo, em Ré, daí procura a tonica do acorde nela, põe o indicador, deita ele pra pressionar tambem a 4ª e 5ª cordas na mesma casa e desce a palheta :D

marcio_zav
Veterano
# nov/09
· votar


jacksonfive
A----3--------------------------------------------------
E-1-----------------------------------------------------


ai desse a palheta sem dó


Olha o Dó ali! como sem??

:P


/tosco.haha

xl30n4rd0x
Veterano
# nov/09
· votar


Iommi Young
Mas se quiser afinar no mesmo ré da 4ª corda pode afinar sim... mas depois faz um tópico com fotos do braço como ficou

LeandroP
Moderador
# nov/09
· votar


hughet

esqueci o nome desse tipo de power chord

Power-chord invertido. O intervalo de 5a justa é invertido, formando um intervalo de 4a justa.

Seria melhor se você postasse as 5 cordas da tablatura.

Headstock invertido
Veterano
# nov/09
· votar


marcio_zav
nossa, tão ruim que mereceu +1 haha

sidguitar1
Veterano
# nov/09 · Editado por: sidguitar1
· votar


depende da situaçao,mas qualquer jeito é certo.vou passar outros desenhos que acho massa para power chords(se vc ja conhecer desconsidere)abraço

       F5        C5        E5          A5      D5/A     G5/D     C5/G
e------------------------------------- 5-----------------------------------
B----------------------------- 5-------5-------------------------------------
G--------------------5--------4-------2--------------------------5---- --
D---------3----------5------- 2------------------------5---------5-----
A---------3----------3-----------------------5---------5--------------------
E---------1-----------------------------------5------------------------------


D5/A G5/D C5 D5 E5
e-----------------------------------------------------------------
B--------------------------------------------10------------------
G----------------------- 7----------7 ------ 7-----------4-------
D-----------7-----------5----------5--------7-----------2---
A-----------5-----------5----------5--------5-----------2--
E-----------5-----------------------3--------------------0---

existem outros desenhos de acordes e de inversoes para power chords,mas eu me viro com estes.abraço (sei la se bebi demais,tentei arrumar mas sempre fica torto algum numero na tab,vai assim mesmo)
[

Iommi Young
Veterano
# nov/09
· votar


xl30n4rd0x
Headstock invertido

hahaha obrigado pela ajuda, eu nunca intendia cara, achava que os cara colocava a mesma 4ª corda no lugar da 6ª pq ficava muito esticada e poderia quebrar se afinasse a 6ª como a 4ª...

Eu tenho afinador elétrico sim, agora intendi, muito obrigado, ajudou muito :D

Penta_Blues
Moderador
# nov/09
· votar


Bom dia!!!

John Guga Mendes
É interessante observar que existem formas mais tradicionais, mas nada como a adaptação do músico às suas características.
Tocar deve ser algo confortável, mas vamos a alguns conceitos que certamente influenciam na forma de tocar.
Power Chords
Os Power Chords são os acordes mais utilizados e difundidos no Rock de maneira geral, principalmente entre guitarristas iniciantes e gêneros que não se preocupam com Harmonias elaboradas ou rebuscadas. Sua facilidade de compreensão e execução está no fato de que, entendidos os principios de sua formação, é possível transportá-los por toda a extensão da escala da guitarra.
O Power Chord mais utilizado é aquele formado por Tônica e Quinta Justa, e sua popularidade se deve a dois fatores:
a) Funciona exatamente da mesma maneira em qualquer casa, desde que a Tônica permaneça entre as três últimas cordas (4ª, 5ª e 6ª).
b) Não inclui na sua formação a Terça, deixando assim de ter a característica Maior ou Menor do acorde.
A base para a formação do Power Chord tradicional são os Intervalos Consonantes, ou seja, Tônica e Quinta (com um intervalo de Quinta Justa) para os Bicordes, e Tônica, Quinta e Oitava (repetindo o intervalo de Quinta Justa do modelo anterior e acrescentando o de Quarta Justa entre a Quinta e a Oitava) para as Tríades.
Como estes acordes normalmente não possuem Terça, eles adquirem um caráter de suspensão e perdem, em princípio, sua função harmônica, não significando no entanto que seu uso pode ser indiscriminado, pois sua Tônica permite atribuir uma certa regra ao seu emprego.
De maneira geral, basta saber posicionar a Tônica no lugar certo para não se complicar com os Power Chords. Mas, como tudo possui seus "segredinhos", nos Power Chords estes residem em conhecer suas variações e em aplicar os conhecimentos relativos a acordes e Graus de um Campo Harmônico.
De posse destes conhecimentos, podemos então montar os seguintes Power Chords e suas variações:
1 - Power Chord Tradicional: Tônica e Quinta Justa
Como visto anteriormente, devido ao uso de apenas duas notas na sua formação e de utilizar cordas subsequentes em seu "shape", este Power Chord pode ser usado nas três últimas cordas.
2 - Power Chord adicionando outra Tônica: Tônica, Quinta Justa e Oitava
Dá ao Power Chord uma característica mais "brilhante", mas deve-se tomar cuidado com seu "shape" que é diferente ao se usar as 5ª e 6ª cordas daquele na 4ª, por conta da variação de intervalos para as demais cordas.
3 - Power Chord adicionando outra Quinta: Quinta Justa, Tônica, Quinta Justa e Oitava
Este Power Chord tem um som mais "cheio" e grave devido à Quinta acima da Tônica.
4 - Power Chord adicionando uma nona: Tônica, Quinta Justa e Nona
Normalmente empregado no gênero Progressivo
5 - Power Chord Invertido: Quinta e Tônica
Ainda trabalhando com os I e IV Graus, fazemos neste modelo uma inversão, ou seja, a nota mais aguda é a Tônica do Power Chord.
6 - Power Chord para substituir Acordes Maiores: Tônica, Quinta Justa, Oitava e Décima.
Mas Décima não é uma Terça e Power Chord não possui terças?!...
Correto, os tradicionais não. E por isso mesmo este modelo de Power Chord se amarra à única função de substituir os acordes Maiores, principalmente quando um tema tocado todo em Power Chord requer transições de arpejos rápidos. Outra característica desse Power Chord é que ele só funciona em tônicas localizadas na 6ª corda.
7 - Power Chord Menor: Tônica e Terça Menor
O desenho lembra um Power Chord invertido e serve para harmonizar-se quando estamos utilizando Escalas Menores da Tônica ou sua Relativa Maior, sendo muito útil numa transição ou para quebrar a monotonia de uma sequência de Power Chords tradicionais.
8 - Power Chord Maior: Tônica e Terça Maior
Este Power Chord, muito usado por bandas de Rock mais "pesado", tem o mesmo princípio de emprego do Power Chord anterior, com a diferença deste ser harmonizado nas Escalas Maiores da Tônica ou na sua Relativa Menor.
Todas estas variações permitem que, aplicando os conhecimentos sobre formação de acordes e Intervalos, se altere o andamento harmônico da composição apenas alterando o padrão de Power Chord utilizado.
Acho que deu pra ter uma noção de que não se trata apenas de ficar mais confortável tocar Power Chord com dois ou três dedos, mas sim de que sensação pretendemos passar em nossa composição aos recorrermos aos Power Chords.
Valeu!!!

Iommi Young
Veterano
# nov/09
· votar


Penta_Blues

Só uma pergunta, ce ja tem esses 'livros' tudo arquivado ae no Bloco de Notas né? Fala a verdade, eh soh crlt C crlt V nao é?

Dá até um desanimo qnd vejo esses textos gigantes....

2zora pra passa ele...

Enviar sua resposta para este assunto
        Tablatura   
Responder tópico na versão original
 

Tópicos relacionados a como vocês fazem os power chords?