Como funciona os power chords nas musicas pop punk/rock alternativo? (como compor esse tipo de músi

    Autor Mensagem
    1521
    Membro Novato
    # 27/nov/17 02:04


    Vou usar como exemplo a música ''It's Not a Fashion Statement, It's a Deathwish'' do My Chemical Romance. Com base em que o riff inicial foi escrito? Só preciso de uma direção pra estudar esse tipo de música mas não tem muita coisa sobre power chords na internet. Se for responder '' Arrume um professor'', não precisa, já sei que tenho que fazer isso.

    A tab da música tá aqui e o link é esse https://www.youtube.com/watch?v=uZnVTWVOcbo


    e-------------------------------------------------------
    B-------------------------------------------------------
    G--6-6-6-6-6-6-6-6-6--6-6-6-6-8-9-8-6--9-9-9-8-8-8-8-8
    D--x-x-x-x-x-x-x-x-x--x-x-x-x-x-x-x-x--x-x-x-x-x-x-x-x--
    A--4-4-4-4-4-4-4-4-4--x-x-x-x-x-x-x-x--x-x-x-x-x-x-x-x--
    E---------------------5-5-5-5-5-5-5-5--7-7-7-7-7-7-7-7--


    e------------------------------------------------------
    B------------------------------------------------------
    G--6-6-6-6-6-6-6-6-6--6-6-6-6-8-9-8-6--9-9-9-8-8-8-8-8--
    D--x-x-x-x-x-x-x-x-x--x-x-x-x-x-x-x-x--x-x-x-x-x-x-x-x--
    A--4-4-4-4-4-4-4-4-4--x-x-x-x-x-x-x-x--x-x-x-x-x-x-x-x--
    E---------------------5-5-5-5-5-5-5-5--7-7-7-7-7-7-7-7--

    e------------------------------------------------------
    B------------------------------------------------------
    G------------------------------------------------------
    D--6-6-6-6-6-6-6-6-6-----------------------------------
    A--6-6-6-6-6-6-6-6-6-----------------------------------
    E--4-4-4-4-4-4-4-4-4-----------------------------------
    ..................



    JJJ
    Veterano
    # 27/nov/17 07:37 · Editado por: JJJ
    · votar


    Com base em que o riff inicial foi escrito?

    Com base em inspiração e um pouco de conhecimento musical...

    Não sei se entendi bem sua pergunta, mas toda e qualquer composição, com ou sem power chords, é isso: inspiração e conhecimento musical.

    acabaramosnicks
    Membro Novato
    # 27/nov/17 08:04
    · votar


    Cara, nem tudo é powerchord.

    Beto Guitar Player
    Veterano
    # 27/nov/17 08:46
    · votar


    Qualquer música vc consegue tocar usando apenas power chords...

    Só pense o seguinte:
    Se considerarmos uma progressão Em C D (o famoso "Que país é esse")
    Em power chords vc irá tocar as notas tônica e quinta de cada acorde somente, ignorando o fato de ser maior ou menor, então ficará assim: E5 C5 D5.


    A base harmônica da música é igual em qualquer estilo, entende? A única diferença é que todos os acordes serão trocados por power chords. Você pode compor um punk no violão e depois simplesmente substituir por power chords na guitarra com distorção.

    Beto Guitar Player
    Veterano
    # 27/nov/17 08:48
    · votar


    Uma coisa que não comentei sobre a música que vc citou.
    Como disseram, nem tudo é power chords, a construção dos riffs usam notas oitavadas ou com um intervalo diferente.

    Wade
    Membro Novato
    # 27/nov/17 10:19 · Editado por: Wade
    · votar


    Power chord é a tônica e a quinta. Nada mais.

    Nessas tabs que você postou aí só tem porwe chord na terceira. O resto é só a tônica oitavada (bem comum também pra "enfeitar" umas passagens) e alguns intervalos aproveitando esse mesmo desenho.

    Não tem muito o que entender sobre power chords. É uma forma de simplificar a execução da harmonia de qualquer música. Cai bem pra guitarra com distorção, porque muitas notas soando ao mesmo tempo embola tudo. Então é conveniente tocar apenas a tônica do acorde e pra "encher" mais o som, adiciona a quinta (que não muda entre acorde maior e menor, mantendo o mesmo desenho sempre).

    *Tônica em negrito


    e------------------------------------------------------
    B------------------------------------------------------
    G------------------------------------------------------
    D------------------7-----------------------------------
    A------------------5-----------------------------------
    E------------------------------------------------------


    E pra dar mais peso ainda, as vezes se adiciona a tônica de novo, só que oitavada.


    e------------------------------------------------------
    B------------------------------------------------------
    G------------------7-----------------------------------
    D------------------7-----------------------------------
    A------------------5-----------------------------------
    E------------------------------------------------------


    E pra dar mais peso ainda (geralmente pra Metal extremo), se adiciona a isso tudo a quinta novamente, uma oitava abaixo.


    e------------------------------------------------------
    B------------------------------------------------------
    G------------------7-----------------------------------
    D------------------7-----------------------------------
    A------------------5-----------------------------------
    E------------------5-----------------------------------


    Ou


    e------------------------------------------------------
    B------------------------------------------------------
    G------------------------------------------------------
    D------------------7-----------------------------------
    A------------------5-----------------------------------
    E------------------5-----------------------------------


      Enviar sua resposta para este assunto
              Tablatura   
      Responder tópico na versão original
       

      Tópicos relacionados a Como funciona os power chords nas musicas pop punk/rock alternativo? (como compor esse tipo de músi