Licks p/ tocar rapido (improvisando)

Autor Mensagem
grafitte
Veterano
# set/03
· votar


o que eh licks?? tipo, to começando ainda com guita =P

mercenary666
Veterano
# set/03
· votar


Licks sao pequenos "fraseados" muusicais manjados q um guitarrista usa na manga pra pdoer usar em musicas,,,

eu na gosto de liks, as vezes crio alguns, ams estao na minha mente,,,
pq pra mim cada musica tem uma sonoridade, nao ha um lick q caia bem em mais de 5 musicas, a nao ser se for mto repetitivo,,,

vongoog
Veterano
# set/03
· votar


Mudando um pouco de assunto...Galera alguem poderia me explicar melhor como se executa um Harmonico Artificial ? nao to conseguindo...o dedao ele so encosta na corda ou ele toca que nem uma palhateda ?

walmir666
Veterano
# set/03
· votar


vongoog

Eu apanhei um pouco pra fazer o harmonico artificial. Comigo funcionou assim: Tocar com a palheta e o dedão ao mesmo tampo. Mesmo assim eu ficava me matando pra tirar um, mas ele vem com o tempo e prática. O foda é fazer na Mizona (6ª corda)q nem o zakk faz direto, os meus ainda falham um pouco na no more tears e perry mason.
Abraços!!!

petrucci
Veterano
# set/03
· votar


e ai blz ... eu uso esse lick para improvisar no blues.

ele esta em do

e 15 18br 18p15 15
b 16 18 18 18p15
g10b 10 8 10 8 15 17 17br
d
a
e

petrucci
Veterano
# set/03
· votar


nossa deu errado eu naum manjo faze.. mas comeca pela corda sol

vongoog
Veterano
# set/03
· votar


Valeu cara...eu tbm to com mta dificuldade... o som como sai ? ouco falar que sai akeles ""gritinhos"" mas o meu nao sai gritinho nenhum ( heheheh) sai a corda abafada quando vou tentar tocar a corda com o dedao...

viniciusjau
Veterano
# set/03
· votar


vongoog
vou dar um exemplo fera pra ti, espera ai deixa eu pegar a guita..

vongoog
Veterano
# set/03
· votar


Vinicius...valeu eu ja aprendi o Harmonico Artificial...
agora to treinando bem para aperfeicoa-lo e to dando umas improvisadas para encaixa-lo num solo...
mas se quiser dar o exemplo , e bem vindo...

niredsystalironledfloyd
Veterano
# out/03
· votar


Legal isso aki!!!!

kava
Veterano
# out/03
· votar


faca no tom q vc quiser
aqui ta em G

e---------7h10p7--------------------------------------------
B----10b-----------10br----------------------------------
G-------------------------------------------------------
D------------------------------------------------------
A------------------------------------------------------
E------------------------------------------------------


esse eh legalzinho...

niredsystalironledfloyd
Veterano
# out/03
· votar


kava
isso me e familiar!

kola
Veterano
# mar/05
· votar


Não existe receita de bolo. Qualquer lick tocado exaustivamente ( tipo 600 vezes por dia) vai sair progessivamente mais rápido, até chegar no ponto crítico - a máxima velocidade que você consegue (esta depende do estimulo constante da região do cérebro responsável pela coordenação motora.

Sérgio Iommi
Veterano
# mar/05
· votar


 t            t             t 

e--17p15p12-----17p15p12------17p14p12-----------------
B----------10b8----------8b10---------8h10p8p7---------
G---------------------------------------------7p5---2p0
D------------------------------------------------5p4---
A------------------------------------------------------
E------------------------------------------------------


Adriano Medeiros
Veterano
# mar/05
· votar



e-------------------------------24-28----------------------
B-------------------------24-28----------------------------
G-------------------24-28----------------------------------
D-------------24-28----------------------------------------
A-------24-28------------------------------------------
E-24-28----------------------------------------------------

isso pq eu adoro "cromatismos" de dois dedos hehe

Adriano Medeiros
Veterano
# mar/05
· votar


falando serio, eu uso muito lick do jimi hendrix e alguma coisinha de steve vai (adoro o som de ambos) principalmente licks encontrados na for love of the god e tender surrender, mas ultimamente eu to tirando uns focus, o guitarrista é bom demais e tem uns lick muito bom, quando eu tirar direitinho eu posto alguns aqui

Gu Borges
Veterano
# mar/05
· votar


pessolamente gosto mt.


e------8p5-7p5-------8p5---7p5-------------------------
B---5-----------6-5------------------------------------
G------------------------------------------------------
D------------------------------------------------------
A------------------------------------------------------
E------------------------------------------------------


coto
Veterano
# mar/05
· votar


Podiam deixar em destaque esse topico!

Doctor Robert
Veterano
# mar/05
· votar


Seria legal se alguém postasse alguns licks do Malmsteen...

maggie
Veterana
# mar/05
· votar




|-5-2-3-5-3-2-7-3-5-7-5-3-9-5-7-9-7-5-10-7-9-10-9-7-12-9-10-12-10-9-.. ..--|
|--------------------------------------------------------------------- ----|
|--------------------------------------------------------------------- ----|
|--------------------------------------------------------------------- ----|
|--------------------------------------------------------------------- ----|
|--------------------------------------------------------------------- ----|



maggie
Veterana
# mar/05
· votar




E |---------------------------4--5-|7-8-------------------------------|
B |-----------------------5-6-----|----------------------------------|
G |-----------------4-5-7---------|----------------------------------|
D |------------6-7----------------|----------------------------------|
A |------5-7-8--------------------|----------------------------------|
E |5-7-8--------------------------|----------------------------------|

E |-------------------------------|----------------------------------|
B |-------------------------------|----------------------------------|
G |-------------------------------|----------------------------------|
D |2--------3---------------------|-2-------------------3------------|
A |2--------3---------------------|-2-------------------3------------|
E |0--------1---------------------|-0-------------------1------------|





bocadecachaca
Veterano
# mar/05
· votar


auahuahua

fritador de animais
Veterano
# jun/05
· votar



e------------------------------------------------------
B------------------------------------------------------
G-----------------------7-4-6-7-6-4------------------------
D-----------6-3-4-6-4-3--------------6-3-4-6-4-3---------
A-----5-4-2---------------------------------------5-4-2-4-2-
E------------------------------------------------------


Victor90215
Veterano
# jun/11 · Editado por: Victor90215
· votar


gf

Victor90215
Veterano
# jun/11
· votar


e--------------------2--3--5--3--2----------------------------
B---------2--3--5--------------------5--3--2------------------
G-2--4-----------------------------------------4--2------------
D-----------------------------------------------------------------
A-----------------------------------------------------------------
E------------------------------------------------------------------

pulgadopc
Veterano
# jun/11
· votar


gf

?

rocknroll1234
Veterano
# jun/11
· votar


aviso:
mantenha o dedo indicador fazendo pestana na 12ª casa da corda 1 e 2 para dar efeito parecido com delay.

E----14-------------------
B-12---12-15-12----12
G-------------------14---

Odranoel123
Veterano
# jun/11
· votar


Esse aqui é do slash

E|-------------15----14-------|
B|----15-----------------------|
G|-------14-12----14----14-|
D|-12------------------------ |
A|--------------------------- |
E|--------------------------- |

Enviar sua resposta para este assunto
        Tablatura   
Responder tópico na versão original
 

Tópicos relacionados a Licks p/ tocar rapido (improvisando)