Como melhorar a velocidade nesse exercício?

Autor Mensagem
Bruttall
Veterano
# mar/06



e----------------------------------------------5-8-------
B----------------------------------5-8-----5-8-------------
G---------------------5-7------5-7-----5-7--------------------
D---------5-7-----5-7------5-7-------------------------------
A-----5-7-----5-7------------------------------------------
E-5-8----------------------------------------------------


Tipo, estou tentando tirar na velocidade do começo do solo de technical difficulties, mas tá difícil, minha velocidade ainda é bem inferior...
Como faço para melhorar a velocidade nesse exercício?
postem alguns exercícios paralelos que ajudam a dominar esse ae, plz

Renato Dell
Veterano
# mar/06
· votar


Cara, isso é uma pentatônica descarada... é só treino mesmo

Bruttall
Veterano
# mar/06
· votar


Que é pentatônica eu sei, mas porra, parece que não consigo aumentar a velocidade porra nenhuma :(
aliás, de ontem pra hoje melhorei mas muito pouco

Patrick GD
Veterano
# mar/06
· votar


Esse mesmo já é um Puta Treino pra pentatônicas em 2 notas por corda.. Só treinar mesmo cara... aquela velha história, começa devagar e vai aumentando aos poucos

Rifferman
Veterano
# mar/06
· votar


cara, é coisa relativamente simples viu.........treina devagar e vai aumentando a velocidade.........mas vc tb pode mudar a digitação.......

U1000D
Veterano
# mar/06
· votar


para tocar rápido vc precisa aprender devagar antes..

vc disse q está numa velocidade inferior da original... então está no caminho certo..

vai tocando todo o trecho de maneira limpa, nota por nota, ñ se importe com a velocidade, tenha paciencia.

vai aumentando a SUA velocidade aos poucos, na qual vc consiga tocar perfeitamente, continue assim, treinando, sem pressa q a velocidade vem

abraço

Bruttall
Veterano
# mar/06
· votar


uma coisa que me ajuda bastante em "dominar um exercício" é fazer ele ao contrário, pq pra mim é mais difícil de baixo pra cima e tal, ai qndo to ficando melhor debaixo pra cima que faço da maneira correta vejo que melhorei mesmo que tenha sido pouco :D

paulinhoux
Veterano
# mar/06
· votar


para tocar rápido vc precisa aprender devagar antes..

Sim

Cara não se preocupa com velocidade... O segredo de tocar rapido é tocar devagar, dito por Mozart Mello a min... o que mais importa, é a definição das notas, não adianta tocar rapido de mais e a pessoas nao saber oq vc ta tocando.. vai treinando cara, e relembre, "O segredo de tocar rápido é tocar devagar."

Bruttall
Veterano
# mar/06
· votar


Anotado, valeu a todos.

ps: é só a mim que incomoda esse lance de ter paciência?rss

MatheusMX
Veterano
# mar/06
· votar


só treinando mesmo cara

palhetada p/ cima = v
palhetada p/ baixo = ^

tenta abafar um pouco as cordas e palhetar com firmeza


e----------------------------------------------5-8-------
B----------------------------------5-8-----5-8-----------
G---------------------5-7------5-7-----5-7---------------
D---------5-7-----5-7------5-7---------------------------
A-----5-7-----5-7----------------------------------------
E-5-8----------------------------------------------------
^ v ^ v ^ v ^ v ^ v ^ v ^ v ^ v ^ v ^ v ^ v ^ v



treina um pouco assim tb :


e----------------------------------------------5h8-------
B----------------------------------5h8-----5h8-----------
G---------------------5h7------5h7-----5h7---------------
D---------5h7-----5h7------5h7---------------------------
A-----5h7-----5h7----------------------------------------
E-5h8----------------------------------------------------
^ ^ ^ ^ ^ ^ ^ ^ ^ ^ ^ ^


Luckas_Guitar
Veterano
# mar/06
· votar


Bruttall

Ñ, com 6 meses de guita tentei pegar tumani notes, quase parei de tocar! Hj to mandando "bem" ela.

Philipius
Veterano
# mar/06
· votar


Uma dica boa para esse trecho, pelo que lembro da época que tocava isso, é acentuar a primeira nota de cada descida.

gu
Veterano
# mar/06
· votar


ta mas a introducao da technical difficulties n tem nd a ver com isso, alias, nd na musica tem haver com isso ;/

gu
Veterano
# mar/06
· votar


um negocio, pegar musicas dificeis mesmo vc n conseguindo tirar elas na velocidade original eh bom pq vc pega diferentes digitacoes e diferentes manahs de guitarristas famosos

GuitarHome
Veterano
# mar/06
· votar


cai logo na real que pentatonica nao é tao legal pra fritar quanto os arpegios e os modos gregos ¬¬

boleterodectba
Veterano
# mar/06
· votar


BAte bastante ******* que tu vira o the flash...

boleterodectba
Veterano
# mar/06
· votar


puuunheta, engraçado que cortaram heheh

Philipius
Veterano
# mar/06
· votar


gu
ta mas a introducao da technical difficulties n tem nd a ver com isso, alias, nd na musica tem haver com isso ;/
Isso é o início do primeiro solo da música.
O autor do tópico salientou isso, basta ver no primeiro post.

StoneColdDead
Veterano
# mar/06
· votar


cara nao adianta vc fica um ano inteiro, tem uma hora q chega meio q nun limite, q vc começa a evoluir mto poco
pega outros exercicios, outrs digitaçoes... nao adianta um iniciante sonha em toca no boundaries, e treina ela todos os dias achando q vai evolui X bpms todos os dias...que dize athe adianta mas provavelmente o cara vai fica frustrado....desencana, treita ateh vc toca numa velo legal e bem limpo, ai passa pra outro exercidos

daqui um tempo pega isso denovo, vc vai ve q ta tocando mta melhor

StoneColdDead
Veterano
# mar/06
· votar


cai logo na real que pentatonica nao é tao legal pra fritar quanto os arpegios e os modos gregos ¬¬
e principalmente menor harmonica
uiwuhauiwhiauwa

MatheusMX
Veterano
# mar/06
· votar


menor harmônica é o que há

marcio_zav
Veterano
# mar/06
· votar


EduArdanuy

menor harmônica é o que há

E misturar ela com a menor melodica......foda
Da um "q" barroca na parada!

vinnyx ardanuy
Veterano
# mar/06
· votar


Eu tô igual tu cara... e é por isso que eu (e você) preciso urgentemente de um metrônomo...

Pena que não comprarei nada até comprara a minha korg ax3000 hehehehe

Mas vai tentando isso:

ex.: 1

e----------------------5-8-----5-8-----------------
B------------------5-8-----5-8---------------------
G--------------5-7---------------------------------
D----------5-7-------------------------------------
A------5-7-----------------------------------------
E--5-8---------------------------------------------


ex.:2

e------------------------------5-8-----5-8---------------
B------------------5-8-----5-8-----5-8-------------------
G--------------5-7-----5-7-------------------------------
D----------5-7-------------------------------------------
A------5-7-----------------------------------------------
E--5-8---------------------------------------------------


ex3.:

e--------------------------------------5-8-----5-8-------
B--------------------------5-8-----5-8-----5-8-----------
G--------------5-7-----5-7-----5-7-----------------------
D----------5-7-----5-7-----------------------------------
A------5-7-----------------------------------------------
E--5-8---------------------------------------------------


ex4.:

e----------------------------------------------5-8-----5-8---
B----------------------------------5-8-----5-8-----5-8-------
G----------------------5-7-----5-7-----5-7-------------------
D----------5-7-----5-7-----5-7-------------------------------
A------5-7-----5-7-------------------------------------------
E--5-8-------------------------------------------------------


Depois faça tudo em seguida
Procure fazer também nas casas 1-3-4
Fazer esses exercícios em lenta velocidade valerá mais do que esse seu aí na velocidade da luz, porque o problema é justamente a hora em que você volta a escala...

Abrçs

marcio_zav
Veterano
# mar/06
· votar



E||------------------------------------5-8-10-||
B||-----------------------------5-8-10--------||
G||-----------------------5-7-9---------------||
D||----------------5-7-10---------------------||
A||---------5-7-10----------------------------||
E||--5-8-10-----------------------------------||


Assim eh doido d+

vinnyx ardanuy
Veterano
# mar/06
· votar


marcio_zav

Acho que ele quer duas notas por corda...

DIEGOGUITAR
Veterano
# mar/06
· votar


Não esqueca de um metronomo e uma tabela de estudos para marcar e acompanhar teu progresso ....

crippled dog
Veterano
# mar/06
· votar


O engraçado é que se eu começar com palhetada para cima eu consigo fazer bem rápido. Mas começando com a palhetada para baixo não.

Bruttall
Veterano
# mar/06
· votar


ta mas a introducao da technical difficulties n tem nd a ver com isso, alias, nd na musica tem haver com isso ;/

O começo do solo tem essa parte, não são com essas casas

gu
Veterano
# mar/06
· votar


Philipius
sempre toquei com 6 notas por corda, e nem tinha me ligado q dava pra tocar em penta, e mesmo se der n sao nessas casas q ele postou
Bruttall
eh, pode ser.

Extrapolation
Veterano
# mar/06
· votar


treina parte por parte, separadamente, depois junta duas... e depois as tres

Enviar sua resposta para este assunto
        Tablatura   
Responder tópico na versão original
 

Tópicos relacionados a Como melhorar a velocidade nesse exercício?