pentatonicas

    Autor Mensagem
    eric_dravin
    Veterano
    # out/05


    alguem poderia me passar as digitaçoes das pentanonicas para que eu possa estudar?

    grato!

    marcio_zav
    Veterano
    # out/05
    · votar



    Penta Am
    E||----------------------5-8-||
    B||------------------5-8-----||
    G||--------------5-7---------||
    D||----------5-7-------------||
    A||------5-7-----------------||
    E||--5-8---------------------||


    stratopeido
    Veterano
    # out/05
    · votar


    e------------------------------------------------------
    B-------------------------------------------------5----
    G-------------------2--4--5--5--4--2--------------4----
    D----------2--4--6--------------------6--4--2-----6----
    A---3--5---------------------------------------5--3----
    E------------------------------------------------------

    darkwolf
    Veterano
    # out/05
    · votar



    e-----------------------3-5----------------------------
    B-------------------3-5--------------------------------
    G---------------2-5------------------------------------
    D-----------2-5----------------------------------------
    A-------3-5--------------------------------------------
    E---3-5------------------------------------------------


    darkwolf
    Veterano
    # out/05
    · votar



    e---------------------------8-10-----------------------
    B----------------------8-10----------------------------
    G------------------7-9---------------------------------
    D-------------7-10-------------------------------------
    A--------7-10------------------------------------------
    E---8-10-----------------------------------------------


    darkwolf
    Veterano
    # out/05
    · votar



    e--------------------------------10-12-------------------
    B--------------------------10-13-------------------------
    G---------------------9-12-------------------------------
    D---------------10-12------------------------------------
    A---------10-12------------------------------------------
    E---10-12------------------------------------------------


    darkwolf
    Veterano
    # out/05
    · votar



    e---------------------------------12-15------------------
    B---------------------------13-15------------------------
    G---------------------12-14------------------------------
    D---------------12-14------------------------------------
    A---------12-15------------------------------------------
    E---12-15------------------------------------------------


    eric_dravin
    Veterano
    # out/05
    · votar


    qual o segredo para solar?

    denvg
    Veterano
    # out/05
    · votar


    tecnicas...pegue solos faceis e depois pega os mais dificeis...dae vc vira pentacampeão!!!

    maniac123
    Veterano
    # out/05
    · votar


    qual o segredo para solar?

    é segredo.

    eric_dravin
    Veterano
    # out/05
    · votar


    se eu me dedicar esclusivamente as pentatonicas e ao campo harmonico aprenderei bem pra solar? e os arpejos, qual a influencias dele nos solos?

    denvg
    Veterano
    # out/05
    · votar


    se eh novo ou jah sabe tudo sobre guitarra?

    marcio_zav
    Veterano
    # out/05
    · votar


    eric_dravin
    Procure um professor

    blond_master
    Veterano
    # out/05
    · votar


    eric_dravin

    olhe meu tópico pentas e campo harmonico

    denvg
    Veterano
    # out/05
    · votar


    vdade...procure professor mesmo!!na IBGM eh melhor

      Enviar sua resposta para este assunto
              Tablatura   
      Responder tópico na versão original
       

      Tópicos relacionados a pentatonicas