Não aguento mais as pentatônicas

    Autor Mensagem
    Nos_FERA_tu
    # dez/02


    Por favor, alguém me mande outras escalas além das pentatônicas!
    nosferatucba@hotmail.com

    ...
    # dez/02


    ah, vai c FUD.Ê

    Guilherme
    # dez/02


    Se vc quiser eu posso te mandar algumas, como a menor harmônica, menor melódica, modos gregos, se quiser essas responda

    Errol
    # dez/02


    G Jônio 
    

    e:------------------------------------------|
    B:------------------------------------------|
    G:------------------------------------------|
    D:-------------------------4-5-7-4-5-7------|
    A:-------------3-5-7-3-5-7------------------|
    E:-3-5-7-3-5-7------------------------------|

    e:--------------------------5-7-8--5-7-8----|
    B:-------------5-7-8-5--7-8-----------------|
    G:-4-5-7-4-5-7------------------------------|
    D:------------------------------------------|
    A:------------------------------------------|
    E:------------------------------------------|

    Am Dórico

    e:------------------------------------------|
    B:------------------------------------------|
    G:------------------------------------------|
    D:--------------------------5-7-9--5-7-9----|
    A:-------------5-7-9--5-7-9-----------------|
    E:-5-7-8-5-7-8------------------------------|

    e:---------------------------7-8-10--7-8-10-|
    B:-------------7-8-10-7-8-10----------------|
    G:-5-7-9-5-7-9------------------------------|
    D:------------------------------------------|
    A:------------------------------------------|
    E:------------------------------------------|

    Bm Frígio

    e:-----------------------------------------------|
    B:-----------------------------------------------|
    G:-----------------------------------------------|
    D:-----------------------------7-9-10-7-9-10-----|
    A:---------------7-9-10-7-9-10-------------------|
    E:-7-8-10-7-8-10---------------------------------|

    e:-------------------------------8-10-12-8-10-12-|
    B:---------------8-10-12-8-10-12-----------------|
    G:-7-9-11-7-9-11---------------------------------|
    D:-----------------------------------------------|
    A:-----------------------------------------------|
    E:-----------------------------------------------|

    C Lídio

    e:----------------------------------------------------|
    B:----------------------------------------------------|
    G:----------------------------------------------------|
    D:----------------------------------9-10-12--9-10-12--|
    A:-----------------9-10-12--9-10-12-------------------|
    E:-8-10-12-8-10-12------------------------------------|

    e:----------------------------------10-12-14-10-12-14-|
    B:----------------10-12-13-10-12-13-------------------|
    G:9-11-12-9-11-12-------------------------------------|
    D:----------------------------------------------------|
    A:----------------------------------------------------|
    E:----------------------------------------------------|

    D Mixolídio

    e:------------------------------------------------------|
    B:------------------------------------------------------|
    G:------------------------------------------------------|
    D:------------------------------------10-12-14-10-12-14-|
    A:------------------10-12-14-10-12-14-------------------|
    E:10-12-14-10-12-14-------------------------------------|

    e:------------------------------------12-14-15--12-14-15|
    B:------------------12-13-15-12-13-15-------------------|
    G:11-12-14-11-12-14-------------------------------------|
    D:------------------------------------------------------|
    A:------------------------------------------------------|
    E:------------------------------------------------------|

    Em Eólio

    e:------------------------------------------------------|
    B:------------------------------------------------------|
    G:------------------------------------------------------|
    D:------------------------------------12-14-16-12-14-16-|
    A:-------------------12-14-15-12-14-15------------------|
    E:12-14-15--12-14-15------------------------------------|

    e:-------------------------------------14-15-17-14-15-17|
    B:-------------------13-15-17--13-15-17-----------------|
    G:12-14-16--12-14-16------------------------------------|
    D:------------------------------------------------------|
    A:------------------------------------------------------|
    E:------------------------------------------------------|

    F# (Meio Diminuto) Lócrio

    e:------------------------------------------------------|
    B:------------------------------------------------------|
    G:------------------------------------------------------|
    D:----------------------------------14-16-17-14-16-17---|
    A:-----------------14-15-17-14-15-17--------------------|
    E:14-15-17-14-15-17-------------------------------------|

    e:-------------------------------------15-17-19-15-17-19|
    B:------------------15-17-19--15--17-19-----------------|
    G:14-16-17--14-16-17------------------------------------|
    D:------------------------------------------------------|
    A:------------------------------------------------------|
    E:------------------------------------------------------|


    - - -
    # dez/02


    por favor alguem pod me mandar por e-mail algumas escalas maneiras??

    vlw!

    dr_pimenta@hotmail.com

    P.S.: e a posiçaum dos dedos nas escalas como eh q eh??

    Frankli
    # dez/02


    só pra calar a boca do idiota que colocou a pergunta vou falar uma coisinha só:
    b.b king só usa pentatonicas e é o mestre do blues. isso mostra que voceé um merrda e nao tem criatividade pra trabalhar com essa escala!
    Frankli

    Senhor Noel
    # dez/02


    e verdade com pentatonicas ta pra fazer uma pa de coisa e modos gregos e apenas uma variaçao o cara so deve subir e descer a escala as vezes da uns bends e so fica naquela casa como por exemplo a em MI fica so na doze e num sobe e nem desce mais so fica la isso e falta de estudo!!

    ]V[AIDE]\[
    # dez/02


    cara, eu sei q eu to entrando d gaiato nesse tópico, mai esse Frankli eh um babaca msm hein....fika xingando o mano assim...

    Fernando
    # dez/02


    é Frankli, se liga mano...tá na kra q o cara tá começando, naum vem com essa de se achar foda e querer tirar o cara...ninguém nasce sabendo não...o bom músico é aquele humilde e quando vê algo que não sabe vai lá e pergunta...queria q um dia vc encontrasse o kra q perguntou e visse que ele progrediu muito mais q vc...vc acha q com essa arrogância vc vai parar em alguma banda mané?

    !!!bAgMaN!!!
    # dez/02


    cala a boca frankli.......
    tu naum sabe nem quando comeu q chega e vai quere xinga os maluko vsf

    Anônimo
    # dez/02


    OU ERROL TU PODERIA FAZER O FAVOR DE EXPLICAR ESSAS COISAS AI

    TIPOW Q ESCALAS SAO ESSAS E QDO SAUM USADAS E OQ É ELAS

    VALEUS!

    noviço!!!
    # dez/02


    ae galera,manda essas escalas pra mim tb pelo e-mail:paulinhogts@hotmail.com
    valeu!!!!!

    Frankli
    # dez/02


    só prah vcs fikarem espertos!
    toco a 35 anos pessoal. nao deixei á minha opiniao aí atoa! dou aulas e trabalho fora do país.tenho uma carreira firme aqui! sou humilde sim mas acho que as pessoas nao podem sair falando que nao aguentam mais uma escala se nao a estudaram bem. eu estudei as escalas pentatonicas e pentablues por mais de 7 anos. por isso acho desprezivel ofender uma escala. nao importa qual. peço desculpas se ofendi o cara ae ou o pessoal do forum. sei que errei mesmo. tambem entrei no forum em um dia que tava pu.. da vida porque bateram feio no meu carro. mais uma vez peço desculpas a todos.

    Fernando
    # dez/02


    blz Frankli!

    _Chicão_
    # dez/02


    Aí pessoal..essa também vai pro Frankli.
    voce ter batido o carro nao dá o direito de xingar o mano. isso é fato! mas o pessoal tambem tem que ver que o cara teve a humildade de pedir desculpas pra todo mundo do forum.nao sou a favor dele nem contra mais acho que foi uma atitude corretissima da parte dele pedir desculpas. mas ele agiu mal pakas.porque nao perdoar em? principalmente depois dele provar que ta arrependido e que nao é um cara assim tao besta! ehehe
    Falow pessoal! reflitam e aprendam a perdoar!
    Abraços do chicão!

    Frankli
    # dez/02


    valeu ae fernando. voce me fez ver o quanto fui idiota! valeu ae chicao! =) abraço a todos e desculpa mesmo! =)
    Abraços

    Fernando
    # dez/02


    valeu Frankli!

    Frankli
    # dez/02


    ae fernando. ja que fiz tanta *****. vamo compensa isso com uma "geladinha" se quiser passar teu email podemos falar.só se vc quiser claro! =)

    Fernando
    # dez/02


    se vc tiver icq pega ae: 164554917 se não: fernandopaul@bol.com.br

    mercenary
    # dez/02


    Aews!!
    Voltanto ao assunto, essas escalas q o errol passou saum os DESENHOS DIATONICOS, eles podem ser usados numa escala de acordo com um tom(dai o nome)
    Ai ele passou o desenho de G(pq o modo jonico estava em G)
    e contem as seguites notas:
    Tonica
    2a Maior
    3a Maior
    4a justa
    5a Justa
    6a Maior
    7a Maior
    8a Justa
    ( os nomes justa e maior sao atribuicoes )
    os modos gregos nascem a partir do momento em que voce pega os outros desenhos e aplica no mesmo tom(???)
    EX!!
    Faça um G jonico, vai soar majestoso
    Faça um G Frigio, vai soas havy metal
    PQ??
    Pcausa da composicao da escala!
    a escala jonica tem a composicaum q eu coloquei ali em cima
    JA A FRIGIA e ESTA AKI:
    Tonica
    2a Menor
    3a Menor
    4a Justa
    5a Justa
    6a Menor
    7a Menor
    8a Justa
    Percebe-se que a escala frigia contem intervalos mais curtos e
    é menor pq apresenta a 3a. menor, assim como todas as outtras escalas menores
    OBS (PARA INTERMEDIARIOS)!!!
    os desenho, em ordem, obedecem a mesma ordem da cifra analitica
    Ex: com tom C
    C Dm Em F G Am Bdim C
    a cifra analitica e maior, menor, menor, maior, maior, menor e diminuto,com os intervalos de tom, tom , semitom, tom , tom, tom e semitom
    ISSO TAMBEM VALE PARA AS ESCALAS GREGAS(OU MODOS GREGOS!)
    entenderam?
    se naum entenderam, procurem um professor, ele explicara isso com mais clareza!

    Anônimo
    # dez/02


    uma duvida...
    tipo... o Jônio...
    tah desenhado em G
    mais tbm pode ser em C neh??

    mercenary
    # dez/02


    claro!
    ai o tom vai ser C

    mercenary
    # dez/02


    claro!
    ai o tom vai ser C
    entendeu a dinamica?

    mercenary
    # dez/02


    claro!
    ai o tom vai ser C
    entendeu a dinamica?

    Blackmore
    # dez/02


    Me manda umas escalas tb


    sknd@bol.com.br

    Eduardo
    # dez/02


    o q eh tom? e eu tbem kero es escalas mas tipow n kero daquele jeito complicado q tem numero romano tom e tals
    valew obcecado@mtv.com.br

    vitor
    Veterano
    # dez/02
    · votar


    ae galera, nao sei quase nada de escala vcs podem me passar as principais?????????
    pode ser por e-mail
    vitor250@hotmail.com

    falouuuuuu galera

    caíto
    Veterano
    # jan/03
    · votar


    beleza... já disse num monte de assunto que vou colocar umas frases melódicas aqui legais de usar... arpejos e outras coisas... só eu arrumar tempo pra escrever tudo...
    falow, caio...

    Dan
    Veterano
    # jan/03
    · votar


    ae guilherme se vc puder manda pra mim tb por favor danvini@msn.com
    Valew

      Enviar sua resposta para este assunto
              Tablatura   
      Responder tópico na versão original
       

      Tópicos relacionados a Não aguento mais as pentatônicas