ganhando velocidade na mão esquerda

    Autor Mensagem
    hOmErZ
    Veterano
    # ago/04


    ae galera... tô tentando tirá um solo aki e naum tô conseguindo pq me falta velocidade e precisão na mão esquerda... alguem aí tem dicas ou exercícios¿ valew!

    obs: sou destro e uso a mão esquerda pra fazer as notas no braço do instrumento

    Chapolin Colorado
    Veterano
    # ago/04
    · votar


    Oh cara... esse eh um do Andreoli q dah uma puta ajudada, ocm otmepo vc sentirá uma diferença...

    G|-2-1-2-1-3-1-3-1-4-1-4-1-4-2-4-2-4-3-4-3------
    D|----------------------------------------------
    A|----------------------------------------------
    E|----------------------------------------------

    G|----------------------------------------------
    D|-2-1-2-1-3-1-3-1-4-1-4-1-4-2-4-2-4-3-4-3------
    A|----------------------------------------------
    E|----------------------------------------------

    G|----------------------------------------------
    D|----------------------------------------------
    A|-2-1-2-1-3-1-3-1-4-1-4-1-4-2-4-2-4-3-4-3------
    E|----------------------------------------------

    G|----------------------------------------------
    D|----------------------------------------------
    A|----------------------------------------------
    E|-2-1-2-1-3-1-3-1-4-1-4-1-4-2-4-2-4-3-4-3------


    A melhor forma de execução eh usando hammer-on's e pull offs... vai te dar uma puta resistência, melhora a pegada, e velocidade tb...

    hOmErZ
    Veterano
    # ago/04
    · votar


    valew kra! vô começá já! tipo, onde eu posso encontrar mais coisas como essa do felipe¿

    Tiarli Chedid
    Veterano
    # ago/04
    · votar


    Boa Noite hOmErZ!!

    Velocidade + precisão = metrônomo

    comece devagar mas toque limpo, ouvindo nota por nota...

    bem devagar...

    não aumente os pontos do metrônomo...

    quanto mais tempo vc aguentar ficar em andamento lento, sem queimar nota e sem se perder, mais claro o fraseado ficará na sua cabeça...

    é importante que vc dê uma pequena pausa entre uma tentativa e outra, para teu cérebro "resetar" e começar denovo...

    Chapolin Colorado
    Veterano
    # ago/04
    · votar


    Cara esse eu vi na coverbaixo e decorei... lah nas colunas dele têm algumas coisas legais...

    Thiago Correia
    Veterano
    # ago/04
    · votar


    gostaria de saber mas algum exercicio pra ganher velocidade na mao esquerda alem desse q o Chapolin Colorado coloco... alguem sabe mas algum?

    vlw ae

    Pedro Ernesto
    Veterano
    # nov/04
    · votar


    eu uso este

    e------------------------------------------------------
    B------------------------------------------------------
    G--------4-----------5-----------6------------------------
    D------3---3-------4---4-------5---5-------------------------
    A----2-------2---3-------3---4-------4-----------------------
    E--1-----------2-----------3-----------4-------------------

    vai ate a casa 12 dai vc volta

    e------------------------------------------------------
    B------------------------------------------------------
    G------------9---------------8---------------------------
    D---------10---10----------9---9-----------------------------
    A------11---------11----10-------10--------------------------
    E---12---------------11-------------10-----------------------

    depois que vc pegar o geito pode treinar assim....

    e------------------------------------------------------
    B------------------------------------------------------
    G-----------9----------14--------7---------12--------------
    D--------10---------13---------8--------11-------------------
    A-----11---------12----------9-------10----------------------
    E--12---------11----------10-------9-------------------------

    vai e volta ate doer mesmo dai para uns 15 minutos e volta com tudo.
    Agora este é para o mindinho

    e------------------------------------------------------
    B------------------------------------------------------
    G-------------------------7-----------------------------
    D-----------------7-8-5-8---8-7-8---------------------------
    A--5-7-7-7-7-7-7------------------5-7-7-7-7-7-7--------------
    E------------------------------------------------------

    este vc vai usar nas casas 8 o mindinho nas 7 o anelar este é para ser feito rapido.Nao pare completamente nos intervalos fique treinando lento umas duas vezes por dia ate seu braço duer é suficiente.

    Tomcat
    Veterano
    # nov/04 · Editado por: Tomcat
    · votar


    Suba e desça a escala fazendo essas digitações. Pode começar da coluna q quizer, mas lembre-se de fazer as quatro colunas!



    Exercícios de independência/agilidade dos dedos(cromatismo)

    1234 2134 3124 4123
    1243 2143 3142 4132
    1324 2314 3214 4213
    1342 2341 3241 4231
    1423 2413 3412 4312
    1432 2431 3421 4321





    Obs:Em cada exercício de cada coluna, suba e desça a escala 2 ou 3 vezes para passar para a próxima digitação. Se tiver um metronomo é melhor ainda!

    Abraços!!

      Enviar sua resposta para este assunto
              Tablatura   
      Responder tópico na versão original
       

      Tópicos relacionados a ganhando velocidade na mão esquerda