...:::STAIRWAY TO HEAVEN::::...

Autor Mensagem
DeFoDoN
Veterano
# jun/04
· votar


PuNk Bass
fmz...c vc consegui tbm manda

fernandofaria
Veterano
# jun/04
· votar


essa música tocada pelo gabert dá um erro estranho aqui em casa, o pior é que deletei, e baixei de novo e deu o mesmo erro

DeFoDoN
Veterano
# jun/04
· votar


fernandofaria
vc q criou o topico falando disso neh^????

DeFoDoN
Veterano
# jun/04
· votar


PuNk Bass
conseguiu ouvir?

DeFoDoN
Veterano
# jun/04
· votar


alguem mais ???

PuNk Bass
Veterano
# jun/04
· votar


DeFoDoN
Não consegui :(
O cara achou uma gravação acústica feita pelo Led e confundiu com o Ulisses Rocha.. Pode??

Bom, eu tô na procura da música, quem sabe alguma nobre alma compartilhe a musica com a gente no Kazaa.

DeFoDoN
Veterano
# jun/04
· votar


PuNk Bass
hehehehe....eu gravei ela aki...mas num tenhu nenhum site para mandar...nem pelo palco mp3....pq ela tah meio grande...tem um espaço vazio durante a musica pq era a conecção q tava zuando....qm tive algum site e quer q eu ponha...

maggie
Veterana
# jun/04
· votar


Stairway to Heaven (Arranjo by Gabert) e colocado por DeFoDoN 

E|---------------------------------------------------------
B|-------0----1--------0---------0------------------0---1--
G|--2-----------------------2------------------2-----------
D|-----------------2------------------------2--------------
A|------------0--------------------------------------------
E|------------------------------------4--------------------


--------------------------------------------------0-------
------------3----1---0------------------1---3-------------
-------------------------------2--------------------------
------------------------------------0---------------------
-------2--------------------------------------------------
--3-----------------------2----------------------------1--


-----------------------------------------------------------
-------3---1----0----1----0--------------------------------
--------------------------------2----0----0---2----2-------
--0----------------------------------0----0---2----2-------
--------------------------------------------0----0----0--
-----------------1-------------------------3----------------


------------------------------------------------------------
-------0----1---------0---------0-------------------0----1--
---------------------------2--------------------2-----------
--7--------------2-------------------------2----------------
--8---7----0-----------------------------------------------
-------------------------------------4----------------------


---------------------------------------------------0---------
-----------3----1----0------------------1---3---------------
-------------------------------2----------------------------
------2----------------------------0------------------------
------------------------------------------------------------
--3------------------------2----------------------------1---


------------------------------------------------------------
------3----1----0------1----0-------------------------------
---------------------------------2----0----0----2----2----2-
--0-----------------------------------0----0----2----2------
-------------------------------------------------0----0----0-
-----------------0--------------------------3----------------


----------------------0----------------------------------
--0---1---------1--------3------------------3-----------
-----------------0---------2--------2---------2--------2--
------------2--------------0----0--------0----0---0-------
--2---3--------------------------------------------------
---------------------------2------------------1-----------


------------------------------------------------0-----------
--1---0----0----1-------------0----1------3--------3----3--
----------------------2----2----------------0----------------
------------------------------------------------------------
--0---------0--------------0----2----3-----------------------
---------------------------------------------------------3--


-----------------------------------------------------------
--1---0---------------------------------------0------------
-----------2----0----0----2----2---------2--------------2--
-----------0----------2----2----2----2--------------2-------
-----------------------------------------------------------
----------------------1-------------------------------------


----------------------5----7--------------7-------------7--
--1-------------5---------------5--------------5-----------
-----------5-------------------------5-------------5-------
------7--------------------6-------------------------------
-----------------------------------------------------------
-----------------------------------------------------------


-------------------------------------8----------------------
--5-----------------------------5---------5-----------------
------5--------5-----------5-------------------5---------5--
-----------6----------5-----------------------------5-------
------------------------------------------------------------
------------------------------------------------------------


-----------------2--------------------------------------0--
------------3---------3-----------------------------1------
-------2-------------------2---------2---------2-----------
--4-----------------------------4---------3----------------
-----------------------------------------------------------
-----------------------------------------------------------


------------------------0--------------0---------0-------
--1----------------1---------1--------------1---0----1--
------2-------2-------------------2-------------0----2--
---------3--------------------------------------------2--
------------------------------------------------------0--
-------------------------------------------------3-------

------3---------------------------------------------
--1--0------------0----1---------0---------0-------
--2--0-------2------------------------2------------
--2--0----------------------2----------------------
--0--2-------0----2----3------------------------2--
------3---------------------------------------------


---------------------------------------------------------
-----------0----1------------3----1----0-----------------
------2------------------------------------------2-------
--0----------------------2----------------------------2--
---------------------0----------------------0------------
---------------------------------------------------------


-----------0---------------------------------------------
--1---3------------------3----1----0--------------------
--------------------------0-------------2----0----0---2-
---------------------2-----------------------------2-----
----------------3-------------------2--------------------
---------------------------------------------------1-----


-------------------------------------------------------
------------------0----1-----------0---------0---------
--2----------2--------------------------2--------------
--2-------------------------2--------------------------
--0----------0----2---3--------------------------2----
-------------------------------------------------------


----------------------------------------------------------
------------0----1------------3----1----0-----------------
-------2------------------------------------------2-------
--0-----------------------2----------------------------2--
---------------------0-----------------------0------------
----------------------------------------------------------


----------0------------------------------------------------
--1---3-----------------3----1---0------------------------
-------------------------0--------------2----0----0----2--
--------------------2------------------------------2-------
---------------3------------------2------------------------
---------------------------------------------------1-------


---------------------0-------------------0------------
-----------0----1--------------1----0--------------0--
--2---2-------------------0-------------------0-------
--2---------------------------------------------------
--0---0---2----3--------------------2-----------------
------------------------------------------------------



|---------------------------------------------------------
|----------------------1-------0--------------1--------1--
|*------2----2----2-----------0----2----0----2--------2--
|*------2----2----2-----------0--------------2--------2--
|---0-----------------------------------------------------
|---------------------------3-----------------1----1------


--------------------------------------------0----------
--1--------1----1---1---------------------------3--
--2--------2----2---2--------2----2----2--------0--
--2--------2----2---2----0--2----2----2--------0--
-------------------------------------------------------
--1----1--------1-------------------------------3------


--------------------------0---------------
--1---0--------------1---------3----1-----
----------------2----------------------*--
-----------3--------------2-----0-------*--
----------------0----3---------------3-----
-----------1------------------------------


DeFoDoN
Só pra ficar retinho

Tenho outra versão acústica, e uma com Orquestra. De qualquer modo essa música é demais!

DeFoDoN
Veterano
# jun/04
· votar


maggie
posta aee....=)
vlw por ter alinhado...eu num so mto bom nisso

PuNk Bass
Veterano
# jun/04
· votar


DeFoDoN
Tens MSN?? Poxa, conversa com o Melqui, quero muito ouvir essa música! =)

DeFoDoN
Veterano
# jun/04
· votar


PuNk Bass
defodon@hotmail.com

DeFoDoN
Veterano
# jun/04
· votar


alguem mais??

PuNk Bass
Veterano
# jul/04
· votar


DeFoDoN
Ok, vou te adicionar então

DeFoDoN
Veterano
# jul/04
· votar


PuNk Bass
fmz...

DeFoDoN
Veterano
# jul/04
· votar


fechando topico...
eh issu ae...vlw ae pro pessoal q posto aki...

DeFoDoN
Veterano
# jul/04
· votar


mas num vo fecha agora...soh depois...qm quiser falar alguma coisa em relação ao tópico...ou ouviu a musica do ulisses rocha...tem um tempinhu pra escreve

DeFoDoN
Veterano
# jul/04
· votar


mas num vo fecha agora...soh depois...qm quiser falar alguma coisa em relação ao tópico...ou ouviu a musica do ulisses rocha...tem um tempinhu pra escreve

DeFoDoN
Veterano
# jul/04
· votar


travo tdo aki...

Você não pode enviar mensagens, pois este tópico está fechado.
 

Tópicos relacionados a ...:::STAIRWAY TO HEAVEN::::...