Exercícios toscos

    Autor Mensagem
    Bruno_Guitarplayer
    Veterano
    # abr/05


    Esses dia tava la tocano a minha guita e catei uma tablatura de uma escala menor modulada, coisinha de iniciante, dae eu fui toca e me embaraiei tudo, deu mó raiva, sai chutano tudo aqui em casa! E eu num sou la essas coisa na guita memo, mas eu consigo fazer coisa mais difícil que aquilo.

    Ja aconteceu com algum de voces isso de voltar no tempo e se perder em 1-2-3-4? Isso é normal? Ou eu devo pular de um precipício memo? hehehe.

    Por favor ajudem ae, to precisano muito, valew.

    angus junior
    Veterano
    # abr/05
    · votar


    Bruno_Guitarplayer
    1234 eh pra vida toda

    Bruno_Guitarplayer
    Veterano
    # abr/05
    · votar


    angus junior

    Isso quer dizer que vc tbm se embaria as vezes no 1234 tamém?

    angus junior
    Veterano
    # abr/05
    · votar


    Bruno_Guitarplayer
    sim
    td mundo

    Bruno_Guitarplayer
    Veterano
    # abr/05
    · votar


    angus junior

    Agora estou mais tranquilo, vou tirar a calibre 12 da oreia. hehehe... vlew

    angus junior
    Veterano
    # abr/05
    · votar


    Bruno_Guitarplayer
    huaeuhaeuheuhaeuaeuaea

    Wagner
    Veterano
    # abr/05
    · votar


    kara todo dia no minimo 15 minutos de 1234.....pra aquecer pelo menos

    Rodrigo rvssvr
    Veterano
    # abr/05
    · votar


    tem umas variações de 1234 que complicam as vezes

    Bruno_Guitarplayer
    Veterano
    # abr/05
    · votar


    Rodrigo rvssvr

    è verdade, eu treino bastante o 1324

    Wagner
    Veterano
    # abr/05
    · votar



    e-1---3-4-------1---3-4--------------------------------------
    B-1-2---4-------1-2---4---------------------------------------
    G-1---3-4-------1---3-4-------------------------------------
    D-1-2---4-------1---3-4--------------------------------------
    A-1---3-4-------1-2---4--------------------------------------
    E-1-2---4-------1-2---4--------------------------------------


    vai inventando uns exercicios vc msm tipo assim.....pra num erra mais

    Rodrigo rvssvr
    Veterano
    # abr/05
    · votar


    è verdade, eu treino bastante o 1324

    esse é até fácil, eu tenho dificuldade em 3124

    MatheusMX
    Veterano
    # abr/05
    · votar


    exercicios toscos saum mto uteis , tbm faço o de encruzilhada com sweep

    Domine
    Veterano
    # abr/05
    · votar


    Todo dia eu faço todos os exercícios, desde os d iniciante, e toda vez q eu aprendo um exercicio novo eu treino ele tambem junto com todos

    RITCHIE RHOADS
    Veterano
    # mai/05
    · votar


    Essa é uma variação(que eu acabei de inventar..rsrsr) de um exercício do MOZART MELO.

    e------------------------------------------------------
    B------------------------------------------------------
    G------------------------------------------------------
    D------------------------------------------------------
    A----------4----------3------------2-----------1-----------
    E-1234 321--1234 321------1234 321----1234 321-----------------------------------------


    Italo Fiscina
    Veterano
    # mai/05
    · votar


    eu treino mto o 1423 + o 1234 eh pra vida toda como disse o angus junior...

      Enviar sua resposta para este assunto
              Tablatura   
      Responder tópico na versão original
       

      Tópicos relacionados a Exercícios toscos