IMPROVISACAO

Autor Mensagem
Keldorn
Veterano
# jun/03
· votar


as maiores são assim mesmo já as menores eu nem sei pq aprendi esse negócio das maiores hj...

Iron_Ata_Man
Veterano
# jun/03
· votar


uma coisa é certa, escala natural é a base de tudo

spy2k
Veterano
# jun/03
· votar


humm..eu sabia as menores..soh q eskeci como monta..dá uma olhada q tem nas aulas do cifraclub.. lá.. certinho

Louiz_Guitarrista_fcc
Veterano
# jun/03
· votar


pega um programa na net q chama band in a box, que ele faz a armonia q vc quisé com batera, baxo e tudo ai é só po a cabeça pra pensa!!!!!!!

Errol
Veterano
# jun/03
· votar


Eu faço assim, se a musica está em DÓ, faço as escalas pentatônicas usando DÓ como tônica e descanço na Tônica, Terça e Quinta.

Escala de DÓ Maior pela 5ª Corda:


|-------------------------6-7-8-|
|--------------/----5-6-7-------|
|-----------2-4-5-7-------------|
|-----2-3-5---------------------|
|-3-5---------------------------|
|-------------------------------|

|---------------------------------------LÁ-SI-DÓ-|
|-----------------------------MI-FÁ-SOL----------|
|-----------------LÁ-SI-DÓ-RÉ--------------------|
|-------MI-FA-SOL--------------------------------|
|-DÓ-RÉ------------------------------------------|
|------------------------------------------------|

|-------------------------------LÁ-SI-1-|
|------------------------3-FÁ-5---------|
|-------------LÁ-SI-1-RÉ----------------|
|------3-FÁ-5---------------------------|
|-1-RÉ----------------------------------|
|---------------------------------------|

Escala de DÓ Maior pela 6ª Corda:

|--------------------------------7-8-|
|---------------------------8-10-----|
|--------------------7-9-10----------|
|-------------7-9-10-----------------|
|------7-8-10------------------------|
|-8-10-------------------------------|

|------------------------------------------SI-DÓ-|
|-----------------------------------SOL-LÁ-------|
|--------------------------RÉ-MI-FÁ--------------|
|-----------------LÁ-SI-DÓ-----------------------|
|-------MI-FÁ-SOL--------------------------------|
|-DÓ-RÉ------------------------------------------|

|----------------------------------SI-1-|
|-----------------------------5-LÁ------|
|---------------------RÉ-3-FÁ-----------|
|-------------LÁ-SI-1-------------------|
|------3-FÁ-5---------------------------|
|-1-RÉ----------------------------------|

Pentatônica 1, Inicia em DÓ:

|------------------------------8-10-|
|-------------------------8-10------|
|-------------------7-8-9-----------|
|--------------7-10-----------------|
|---------7-10----------------------|
|-8-10-11---------------------------|

|-----------------------------------------DÓ-RÉ-|
|----------------------------------SOL-LÁ-------|
|------------------------RÉ-RÉ#-MI--------------|
|------------------LÁ-DÓ------------------------|
|-----------MI-SOL------------------------------|
|-DÓ-RÉ-RÉ#-------------------------------------|

|---------------------------------1-RÉ-|
|----------------------------5-LÁ------|
|--------------------RÉ-BN-3-----------|
|---------------LÁ-1-------------------|
|---------3-SOL------------------------|
|-1-RÉ-BN------------------------------|

Pentatônica 2, inicia em RÉ:

|------------------------------------10-11-12-|
|------------------------------10-13----------|
|-------------------------9-12----------------|
|----------------10-12-13---------------------|
|----------10-12------------------------------|
|-10-11-12------------------------------------|

|-----------------------------------------RÉ-RÉ#-MI-|
|-----------------------------------LÁ-DÓ-----------|
|----------------------------MI-SOL-----------------|
|------------------DÓ-RÉ-RÉ#------------------------|
|-----------SOL-LÁ----------------------------------|
|-RÉ-RÉ#-MI-----------------------------------------|

|-------------------------------RÉ-BN-3-|
|--------------------------LÁ-1---------|
|----------------------3-5--------------|
|--------------1-RÉ-BN------------------|
|---------5-LÁ--------------------------|
|-RÉ-BN-3-------------------------------|

Pentatônica 3, inicia em MI:

|-------------------------------------12-15-|
|----------------------------13-15-16-------|
|----------------------12-14----------------|
|-------------12-13-14----------------------|
|-------12-15-------------------------------|
|-12-15-------------------------------------|

|-----------------------------------------MI-SOL-|
|-------------------------------DÓ-RÉ-RÉ#--------|
|------------------------SOL-LÁ------------------|
|--------------RÉ-RÉ#-MI-------------------------|
|--------LÁ-DÓ-----------------------------------|
|-MI-SOL-----------------------------------------|

|-------------------------------3-5-|
|-----------------------1-RÉ-BN-----|
|------------------5-LÁ-------------|
|----------RÉ-BN-3------------------|
|-----LÁ-1--------------------------|
|-3-5-------------------------------|

Pentatônica 5, inicia em SOL:

|-------------------------3-5-|
|-------------------3-4-5-----|
|---------------2-5-----------|
|-----------2-5---------------|
|-----3-5-6-------------------|
|-3-5-------------------------|

|-----------------------------------------SOL-LÁ-|
|-------------------------------RÉ-RÉ#-MI--------|
|-------------------------LÁ-DÓ------------------|
|------------------MI-SOL------------------------|
|--------DÓ-RÉ-RÉ#-------------------------------|
|-SOL-LÁ-----------------------------------------|

|-------------------------------5-LÁ-|
|-----------------------RÉ-BN-3------|
|------------------LÁ-1--------------|
|--------------3-5-------------------|
|------1-RÉ-BN-----------------------|
|-5-LÁ-------------------------------|

Pentatônica 6, inicia em LÁ:

|-------------------------5-8-|
|---------------------5-8-----|
|---------------5-7-8---------|
|-----------5-7---------------|
|-----5-6-7-------------------|
|-5-8-------------------------|

|-----------------------------------------LA-DÓ-|
|----------------------------------MI-SOL-------|
|------------------------DÓ-RÉ-RÉ#--------------|
|-----------------SOL-LA------------------------|
|-------RÉ-RÉ#-MI-------------------------------|
|-LÁ-DÓ-----------------------------------------|

|-------------------------------LÁ-1-|
|---------------------------3-5------|
|-------------------1-RÉ-BN----------|
|--------------5-LÁ------------------|
|------RÉ-BN-3-----------------------|
|-LÁ-1-------------------------------|

Escala Menor Primitiva

|-----------------------------5-7-8-|
|-----------------------5-6-8-------|
|-----------------4-5-7-------------|
|-------------5-7-------------------|
|-------5-7-8-----------------------|
|-5-7-8-----------------------------|

|---------------------------------------------LÁ-SI-DÓ-|
|-----------------------------------MI-FÁ-SOL----------|
|--------------------------SI-DÓ-RÉ--------------------|
|-------------------SOL-LÁ-----------------------------|
|----------RÉ-MI-FÁ------------------------------------|
|-LÁ-SI-DÓ---------------------------------------------|

|-------------------------------------LÁ-SI-1-|
|------------------------------3-FÁ-5---------|
|----------------------SI-1-RÉ----------------|
|-----------------5-LÁ------------------------|
|---------RÉ-3-FÁ-----------------------------|
|-LÁ-SI-1-------------------------------------|

Escala Menor Harmônica:

|---------------------------4-5-|
|-----------------------5-6-----|
|-----------------4-5-7---------|
|-------------6-7---------------|
|-------5-7-8-------------------|
|-5-7-8-------------------------|

|------------------------------------------SOL#-LÁ-|
|------------------------------------MI-FÁ---------|
|---------------------------SI-DÓ-RÉ---------------|
|-------------------SOL#-LÁ------------------------|
|----------RÉ-MI-FÁ--------------------------------|
|-LÁ-SI-DÓ-----------------------------------------|

Escala Menor Melódica:

|---------------------------4-5-|
|-----------------------5-7-----|
|-----------------4-5-7---------|
|-----------4-6-7---------------|
|-------5-7---------------------|
|-5-7-8-------------------------|

|----------------------------------------------SOL#-LÁ-|
|---------------------------------------MI-FÁ#---------|
|----------------------------SI-DÓ#-RÉ-----------------|
|----------------FÁ#-SOL#-LÁ---------------------------|
|----------RÉ-MI---------------------------------------|
|-LÁ-SI-DÓ---------------------------------------------|

Escala Menor Primitiva (5ª Corda):
|----------------------------------12-13-15-|
|-------------------------12-13-15----------|
|-------------------12-14-------------------|
|----------12-14-15-------------------------|
|-12-14-15----------------------------------|
|-------------------------------------------|

Escala Menor Harmônica (5ª Corda):
|----------------------------------12-13-16-|
|-------------------------12-13-15----------|
|-------------------13-14-------------------|
|----------12-14-15-------------------------|
|-12-14-15----------------------------------|
|-------------------------------------------|

Escala Menor Melódica (5ª Corda):
|----------------------------------12-14-16-|
|-------------------------12-13-15----------|
|----------------11-13-14-------------------|
|----------12-14----------------------------|
|-12-14-15----------------------------------|
|-------------------------------------------|

Modos Gregos

Lídio (IV), Mixolídio (V):
|-----------------||---------------3-5-|
|-----------------||---------3-5-6-----|
|-----------------||---2-4-5-----------|
|-------------2-3-||-5-----------------|
|-------2-3-5-----||-------------------|
|-1-3-5-----------||-------------------|

|---------------------------||-----------------------SOL-LA-|
|---------------------------||--------------RE-MI-FA--------|
|---------------------------||-----LA-SI-DO-----------------|
|---------------------MI-FA-||-SOL--------------------------|
|-----------SI-DOL-RE-------||------------------------------|
|-FA-SOL LA-----------------||------------------------------|

|--------------------||-----------------5-13-|
|--------------------||----------9-3-11------|
|--------------------||---13-7-1-------------|
|---------------3-11-||-5--------------------|
|---------7-1-9------||----------------------|
|-11-5-13------------||----------------------|

Eólio (VI):
|-----------------------------5-7-8-|
|-----------------------5-6-8-------|
|-----------------4-5-7-------------|
|-------------5-7-------------------|
|-------5-7-8-----------------------|
|-5-7-8-----------------------------|

|---------------------------------------------LA-SI-DO-|
|-----------------------------------MI-FA-SOL----------|
|--------------------------SI-DO-RE--------------------|
|-------------------SOL-LA-----------------------------|
|----------RE-MI-FA------------------------------------|
|-LA-SI-DO---------------------------------------------|

|----------------------------------13-7-1-|
|---------------------------3-11-5--------|
|--------------------7-1-13---------------|
|---------------5-13----------------------|
|--------9-3-11---------------------------|
|-13-7-1----------------------------------|

Lócrio (VII), Iônico (I):
|----------------------------------7-8-10-|
|-----------------------------8-10--------|
|----------------------7-9-10-------------|
|---------------7-9-10--------------------|
|--------7-8-10---------------------------|
|-7-8-10----------------------------------|

|---------------------------------------------SI-DO-RE-|
|--------------------------------------SOL-LA----------|
|-----------------------------RE-MI-FA-----------------|
|--------------------LA-SI-DO--------------------------|
|----------MI-FA-SOL-----------------------------------|
|-SI-DO-RE---------------------------------------------|

|---------------------------------9-1-11-|
|----------------------------5-13--------|
|---------------------9-3-11-------------|
|--------------13-7-1--------------------|
|-------3-11-5---------------------------|
|-7-1-9----------------------------------|

Dórico:
|-----------------------------------------10-12-13-|
|--------------------------------10-12-13----------|
|------------------------9-10-12-------------------|
|----------------9-10-12---------------------------|
|----------10-12-----------------------------------|
|-10-12-13-----------------------------------------|

|---------------------------------------------RE-MI-FA-|
|------------------------------------LA-SI-DO----------|
|--------------------------MI-FA-SOL-------------------|
|-----------------SI-DO-RE-----------------------------|
|----------SOL-LA--------------------------------------|
|-RE-MI-FA---------------------------------------------|

|----------------------------------11-3-13-|
|---------------------------13-7-1---------|
|--------------------2-11-5----------------|
|-------------7-1-9------------------------|
|--------5-13------------------------------|
|-9-3-11-----------------------------------|

Frígio (III):
|-------------------------------------------12-13-15-|
|----------------------------------12-13-15----------|
|----------------------------12-14-------------------|
|-------------------12-14-15-------------------------|
|----------12-14-15----------------------------------|
|-12-13-15-------------------------------------------|

|---------------------------------------------MI-FAL-SOL-|
|------------------------------------SI-DO-RE------------|
|-----------------------------SOL-LA---------------------|
|--------------------RE-MI-FA----------------------------|
|-----------LA-SI-DO-------------------------------------|
|-MI-FA-SOL----------------------------------------------|

|-----------------------------------3-11-5-|
|----------------------------7-1-9---------|
|-----------------------5-13---------------|
|---------------9-3-11---------------------|
|--------13-7-1----------------------------|
|-3-11-5-----------------------------------|



Tipow, em cada escala, tem 3 desenhos, a primeira é a escala, a segunda é o nome das notas e a terceira é o "valor delas" tipo 1= tônica, 3=terça, 4=quarta e BN=blue note

Enviar sua resposta para este assunto
        Tablatura   
Responder tópico na versão original
 

Tópicos relacionados a IMPROVISACAO