(Banda)

    Autor Mensagem
    be_ta
    Veterano
    # abr/05


    (Banda)

    maniac123
    Veterano
    # abr/05
    · votar


    ????????

    BlaCk LaBeL
    Veterano
    # abr/05
    · votar


    (Bunda)

    bulldog
    Veterano
    # abr/05
    · votar


    (Banda)
    Led Zeppelin!

    Ganhei?

    Spectrum
    Veterano
    # abr/05
    · votar


    bulldog
    boa!
    agora vejamos...
    Dream Theater!
    Ganhei tb?

    MatheusMX
    Veterano
    # abr/05
    · votar


    bulldog
    Spectrum
    boa!
    agora vejamos...

    Dr.Sin
    Ganhei !!!

    Rodrigo rvssvr
    Veterano
    # abr/05
    · votar


    ele é só um be_ta, um peixe sem raciocínio

    pinguim_rj
    Veterano
    # abr/05
    · votar


    Rodrigo rvssvr
    aehueahueaahu

    Dungeon
    Veterano
    # abr/05
    · votar


    be_ta
    (Banda)

    Afirmativo, Mamãe Ganso. Filhote II seguindo com o plano.
    Câmbio, desligo.

    Paulo Feresin
    Veterano
    # abr/05
    · votar


    Dungeon
    hauhaoauhaiouhauhafh!!!!!

    (panda)

    Marco_Uber_Alles
    Veterano
    # abr/05
    · votar


    (Banda) era o nome do primeiro projéto do Mallandro... Era uma espécie de G3: Mallandro, Pepeu Gomes e Pedrinho da Luz (ex-The Fevers). A (Banda) não deu certo porque esses dois últimos guitarristas não conseguiram dominar uma certa escala...

    The Splinters
    Veterano
    # abr/05
    · votar


    Marco_Uber_Alles
    uaehuehauhauahuahuu!

    (Banda)
    BLACK SABBATH! ganhei!ehhee

    Marco_Uber_Alles
    Veterano
    # abr/05
    · votar


    The Splinters

    É sério :S

    Mackabr0
    Veterano
    # abr/05
    · votar


    um dia eu comi bacon e alface no mesmo sanduicheiche!

    Alan411
    Veterano
    # abr/05
    · votar


    [i][/i]

    e------------------------------------------------------
    B------------------------------------------------------
    G------------------------------------------------------
    D------------------------------------------------------
    A----------------------6--------------------------------
    E------------------------------------------------------


    Marco_Uber_Alles
    Veterano
    # abr/05
    · votar


    não consegui tocar essa tab... É muito feeling

    Wagner
    Veterano
    # abr/05
    · votar


    Marco_Uber_Alles

    feeling se ta zuando? isso eh feeling


    e------------------------------------------------------
    B------------------------------------------------------
    G------------------------------------------------------
    D--0b----------------------------------------------------
    A------------------------------------------------------
    E------------------------------------------------------


    Marco_Uber_Alles
    Veterano
    # abr/05
    · votar


    Não consigo interpretar essas coisas... :(

    Isso aqui combina com o tópico.

    e--------------------
    b-4~-3~-2~-1~~~
    g-5~-4~-3~-2~~~
    d--------------------
    a--------------------
    E--------------------

    1 tempo cada nota, a 60bps

    maniac123
    Veterano
    # abr/05
    · votar


    @# %¨¨&!*&!!ªªº!

    The Splinters
    Veterano
    # abr/05
    · votar


    Marco_Uber_Alles
    Eu sei q eh sehrio.... por isso q ri... eu sou um kra maneh


    e------------------------------------------------------
    B-------------666--------------------------------------
    G------------------------------------------------------
    D------------------------------------------------------
    A------------------------------------------------------
    E------------------------------------------------------


    The Splinters
    Veterano
    # abr/05
    · votar


    Marco_Uber_Alles
    Eu sei q eh sehrio.... por isso q ri... eu sou um kra maneh


    e------------------------------------------------------
    B-------------666--------------------------------------
    G------------------------------------------------------
    D------------------------------------------------------
    A------------------------------------------------------
    E------------------------------------------------------


    musetti
    Veterano
    # abr/05
    · votar


    aff

    Marco_Uber_Alles
    Veterano
    # abr/05
    · votar


    eu vi o demo quando toquei essa tab ae

    Adriano Medeiros
    Veterano
    # abr/05
    · votar


    vc poderiam me explicar essas tabs??? eu nao entendi...

    ah, e a proposito, bom nome pra uma banda

    The Splinters
    Veterano
    # abr/05
    · votar


    Marco_Uber_Alles
    Eu tbm vi! tesaum neh?
    hehae

    Adriano Medeiros
    num saum nada...
    Toq a minha ali acima e vc verah o demo!!!heheahae

    Marco_Uber_Alles
    Veterano
    # abr/05
    · votar


    The Splinters

    heheheuhe

    Adriano Medeiros

    tu entendeu a minha tab?

    The Splinters
    Veterano
    # abr/05
    · votar


    ahuhueaueahuaeuaheuhea! Tópico muito útil! O Panucci tah contando: 10...9...8...

    maniac123
    Veterano
    # abr/05
    · votar


    esse topico é pra revelar todos os misterios da guitarra

    angus junior
    Veterano
    # abr/05
    · votar


    maniac123
    das bandas tb

    eh verdade q o page mora no brasil?? no nordeste e eh casado cuma brasilera?

    Luã Kaique
    Veterano
    # abr/05
    · votar


    e------------------------------------------------------
    B------------------------------------------------------ repitam até suas mães
    G----------------------------------------------------5--dizer "chegaaa maldito"
    D------------------------------------------------------
    A--------5h7------------5h7------------5h7--5-------
    E--0-0-----------0-0-----------0-0----------------0---

    toquem isso e vcs acharam um feeling.

      Você não pode enviar mensagens, pois este tópico está fechado.
       

      Tópicos relacionados a (Banda)