Técinicas Diferentes !

Autor Mensagem
GuitarHouse
Veterano
# jun/03
· votar


qnd tu toca com sweep, c tira o dedo da respectiva corda tocada pra estinguir o som...e tb pra poder fazer umas coisas a mais, como um hammer e pull off no fim com o dedinho, pois geralmente eh o primero dedo da ordem no sweep.

flw

guitarrafuriosa
Veterano
# jun/03
· votar


Já que vocês tão falando de sweep, queria saber se vocês usam muita distorção pra fazer sweep. Nas aulas eu uso guitarra limpa com o cap do braço, aí tudo bem. Mas overdrive + cap da ponte dá altos chiados e harmônicos incomodando. Esclareçam-me, please!!!

cabiludo
Veterano
# jun/03
· votar


putz fazia um tempo que não via um topico interessante igual esse, é isso ai galera vamos falar de coisas que realmente são legais e nos fazem evoluir e não de quem é o melhor ou opior isso ou aquilo, pq isso não vai fazer agente evoluir e nem mudar a opinião a respeito dos caras em questão...
falei

Leo Barreto
Veterano
# jun/03
· votar


bah gurisada, eu curto muito as tecnicas do ed van halen e do satriani, curto tb Zakky wilde ( esse usa dezenas de tecnicas do malmsteen ).

Quem vcs consideram os 3 melhores guitarristas quanto aos quesitos VELOCIADE, TECNICA E CRIATIVIDADE ?

MINHA OPINIÃO EH A SEGUINTE :

MALMSTEEN ( MUITA TECNICA E VELOCIADE IMPRESSIONANTE )

JOE SATRIANI ( MUITA TECNICA E CRIATIVIDADE )

JOHN PETRUCCI ( GUITARRISTA COMPLETO, MUITA TECNICA, VELOCIDADE E CRIATIVIDADE , UM SOM QUE DEMONSTRA ISSO EH OVERTURE 1928 DO DREAM THEATER )

FLW, ABRAÇO A TODOS

vinicius69
Veterano
# jun/03
· votar


Snakepit
waleu pelo toque kara !

Yngwie Johann Malmsteen
Veterano
# jun/03
· votar


ei leo barreto eu tenho a musica overture 1928 do dream theater com o malmsteen e sinceramente...... apavora....

Yngwie Johann Malmsteen
Veterano
# jun/03
· votar


se for pra quisitos de tecnica e velocida a minha opiniao sao:
YNGWIE MALMSTEEN ( VELOZ < TECNICO AO EXTREMO E CRIATIVO)
STEVE VAI ( VELOZ TECNICO E CRIATIVO )
VIVIAN CAMPBELL ( VELOZ CRIATIVO E TECNICO [ EX GUITARRISTA DO DIO] )
ALGUEM DISCORDA?

caíto
Veterano
# jun/03 · Editado por: caíto
· votar


Leo Barreto
Pô Leo, o cabiludo acaba de falar lá que esse tópico tá interessante, que chega de tópico ISSO ou AQUILO, aí na mensagem seguinte você vai lá e começa a comparar de novo....... Para com essa viadagem de ficar comparando guitarristas, não acrescenta em nada no conhecimento de cada um. Quando vão aprender que gosto é gosto?!

Snakepit
Veterano
# jun/03
· votar


guitarrafuriosa

esse era o problema q eu me referia... uma coisa é fazer sweep sem distorção, outra é fazer com distorção, q fica muito show mas é foda pra caralho.

Uma duvida: ao fazer tapping ou 2 hands, como vcs fazem pra abafar as outras cordas? Por exemplo, as vezes eu to fazendo na Mizinha, e quando eu vou ver as cordas graves tao uma barulhera...

Um lance legal q o steve vai faz pra abafar, em tender surrender, quando ele faz uma sequencia gigande de hammer on e pull of, é segurar o braço da guitarra com a mao direita, ali pelas primeiras casas, abafando tudo, deixando o som limpo pra poder tocar a vontade sabendo q só vai sair o som q tu quizer. O problema é q tu perde uma mao... hehehe, e isso não da pra fazer quando tu quer fazer tapping.

Já pensei em colocar alguma coisa na primeira casa, abafando todas cordas, pq assim não sairia som das cordas soltas. tu poderia tocar tranquilo com a certeza q as outras cordas não vao fazer barulho.

bolinha de fritar escala
Veterano
# jun/03
· votar


snakepit
pra vc nao esbarrar em outras cordas qnd tah fazendo o tapping tente ficar com o braço o + longe possivel das cordas na maioria das veiz eh isso q acontece.....

vinicius69
Veterano
# jun/03
· votar


Snakepit
+ eu não to entendendo, achava q sweep era so uma tecninca de alternar palhetas tem um lance do dedo é isso !???

Snakepit
Veterano
# jun/03
· votar



--------------------------|--------2-8--5------------5--8-17--14------ --|
--------------------------|------2--------7--------7-------------14--- --|
--------------------------|----2-------------6---6-------------------1 4-|
--------------------------|--4-----------------7---------------------- --|
--0-1-3-0-1-3-0-1-3-3-3-3-|------------------------------------------- --|
--------------------------|------------------------------------------- --|



------------14-20--17------------------------------14--22---------------------|
-----13--14-----------19------------------------15--------22------------------|
--14---------------------18------------------14--------------23---------------|
-----------------------------19----------------------------------24-----------|
--------------------------------------15-17-------------------------24-21-----|
--------------------------------20-17--------------------------------------22-|


Sweep pickin pra mim é isso... ou não é???

É um trecho de painkiller.

vinicius69
Veterano
# jun/03
· votar


Snakepit
é isso ai mesmo... mais vc tem q usar as palheta invertidas. pra economizar palhetasdas.. .pra mim Sweep é issu !!!

viniciusjau
Veterano
# fev/04
· votar


quem dá mais quam dá mais ???

yvo
Veterano
# fev/04
· votar


q topico velho, tem mais de um ano com certeza... me, lembro dele a moh tempao atras

John_rs
Veterano
# fev/04
· votar


Sweep Picking é o estudo do movimento da palheta afim de "economizar" movimentos desnecessarios. Ela é mais utilizada em arpejos sem duvida mas não é só isso. Existe uma serie de estudos a respeito do tipo palhetada par, palhetada impar, arpejos, etc...

LOW Fl
Veterano
# fev/04
· votar


escrevi isso em outro tópico:

NOTA PEDAL, PEDAL TONE, PEDAL POINT ETCCC....

Essa já é utilizado a muito tempo. compositores como Paganini abusavam disto.

O negocio é o seguinte,
Nota pedal é quando uma nota é repetida e intercalando enter outras notas.
Neste exemplo a nota pedal é a F que é tocada na primeira corda na casa 13:
Bem Malmsteen, P. Gilbert esse

e-12-13-10-13--13---13----13----13---13---13---13------
B------------13---12---10------------------------------
G----------------------------12----10---9----10---12---
D------------------------------------------------------
A------------------------------------------------------
E------------------------------------------------------


O pedal tone pode ser um grupo de notas tambem:
nesse aqui (11--10--11):


e--------------------------------------------------------
B---11-10-11----11--10--11----11--10--11---11--10--11----
G----------------------------------------9------------10-
D-8----------10------------12----------------------------
A--------------------------------------------------------
E--------------------------------------------------------



BAIXO PEDALé quando a nota que é repetida é mais grave:


e------------------------------------------------------
B------------------------------------------------------
G--------------------------4----5----4-----------------
D-----4-----5----4----2--------------------------------
A--2-----2----2----2----2----2----2-----2--------------
E------------------------------------------------------



PRA LEMBRAR

A intro de Wasted Years do IRON MAIDEN é um baixo pedal usando a corda solta, assim como em Thunderstruck DO AC/DC.
A intro de Sweet Child Of MIne tambem é

LOW Fl
Veterano
# fev/04
· votar


Na musica Wish you were here do Pink Floyd, nas notas que estão em negrito toque com dedo indicador da mão esquerda perto da pestana e faça o legato com com dedo anelar ou médio como vc preferir, dá um som meio estalado na corda similar como se vc estivesse tocando com a palheta perto do rastilho


E||-----------------------|-----3---------3------|
B||-----------------------|-----3---------3------|
G||*----------------------|--0--0------x--0------|
D||*--------------0^2-----|--2--2---------2------|
A||--------0^2------------|----------------------|
E||---3-------------------|----------------------|


LOW Fl
Veterano
# fev/04
· votar


.

Vern
Veterano
# fev/04
· votar


Yngwie Johann Malmsteen

Malmsteen nunca gravou Overture 1928 do Dream Theater não cara. Se viajou, Malmsteen tem 2 músicas chamadar Overture. Mais os n°s são 1383 e 1622.

Reinaldo Camargo Filho
Veterano
# fev/04
· votar


John Petrucci é fodão, mas tem mtos caras fodões também.

Ou vern, tipo quando eu vou fazer aquele tapping do final de Sea of Lies do Symphony X , tipo quando eu tiro o dedo da corda (G) para ir para a corda (e) a corda (G) fica soando solta, tem alguma manha de abafar sem ser com a mão direita, eu vejo ele fazendo no vídeo, e ele nem abafa.

Enviar sua resposta para este assunto
        Tablatura   
Responder tópico na versão original
 

Tópicos relacionados a Técinicas Diferentes !