ESTE RIFF TEM ME AJUDADO MUITO C O DEDO MÍNIMO.................................

    Autor Mensagem
    metalbee
    Veterano
    # dez/04


    ESSE É O RIFF DO IRON- RAINMAKER, Q PEGUEI AQUI NO CIFRACLUB
    T]
    e------------------------------------------------------
    B-----------------15-------------------------------------
    G--------------14----------------------17------------------
    D--12--14---15-------12---14---------------------------------A-------- ---------------------------------------------------E------------------ -----------------------------------------

    e------------------------------------------------------
    B------------------------------------------------------
    G-(17)-----------15----(15)---12----14-----------------------
    D------12---14----------------------------15-----------------
    A------------------------------------------------------
    E------------------------------------------------------

    e------------------------------------------------------
    B-----------------15-------------------------------------
    G-------------14------14-----------------------------------
    D-12--14--15--------------15--12----------------------------
    A------------------------------------------------------
    E------------------------------------------------------

    e------------------------------------------------------
    B---------------15---------------------------------------
    G-----------14------14-------------------------------------
    D--14---15-------------15---12-------------------------------
    A------------------------------------------------------
    E------------------------------------------------------


    metalbee
    Veterano
    # dez/04
    · votar


    e------------------------------------------------------
    B-----------------15-------------------------------------
    G--------------14----------------------17------------------
    D--12--14---15-------12---14---------------------------------
    A-----------------------------------------------------------
    E-----------------------------------------------------------


    e------------------------------------------------------
    B------------------------------------------------------
    G-(17)-----------15----(15)---12----14-----------------------
    D------12---14----------------------------15-----------------
    A------------------------------------------------------ 3X
    E------------------------------------------------------
    _____________________________________________________________
    

    e------------------------------------------------------
    B-----------------15-------------------------------------
    G-------------14------14-----------------------------------
    D-12--14--15--------------15--12----------------------------
    A------------------------------------------------------
    E------------------------------------------------------


    e------------------------------------------------------
    B---------------15---------------------------------------
    G-----------14------14-------------------------------------
    D--14---15-------------15---12-------------------------------2X
    A------------------------------------------------------
    E------------------------------------------------------

    DESCULPEM SAIU EMBOLADO, É O RIFF DO RAIN MAKER DO IRON MAIDEN

    guschard
    Veterano
    # dez/04
    · votar



    e------------------------------------------------------
    B-----------------15-------------------------------------
    G--------------14----------------------17------------------
    D--12--14---15-------12---14---------------------------------
    A-----------------------------------------------------------
    E-----------------------------------------------------------


    e------------------------------------------------------
    B------------------------------------------------------
    G-(17)-----------15----(15)---12----14-----------------------
    D------12---14----------------------------15-----------------
    A------------------------------------------------------ 3X
    E------------------------------------------------------

    _____________________________________________________________

    e------------------------------------------------------
    B-----------------15-------------------------------------
    G-------------14------14-----------------------------------
    D-12--14--15--------------15--12----------------------------
    A------------------------------------------------------
    E------------------------------------------------------


    e------------------------------------------------------
    B---------------15---------------------------------------
    G-----------14------14-------------------------------------
    D--14---15-------------15---12-------------------------------2X
    A------------------------------------------------------
    E------------------------------------------------------




      Enviar sua resposta para este assunto
              Tablatura   
      Responder tópico na versão original
       

      Tópicos relacionados a ESTE RIFF TEM ME AJUDADO MUITO C O DEDO MÍNIMO.................................