SOLO

Autor Mensagem
pleno natural guitarrista
Veterano
# dez/04


AALGUEM ME PASSA UM SOLO DE GUITARRA DO NIRVANA SEM SER A COME AS YOU ARE

gustavo macaco
Veterano
# dez/04
· votar



e------------------------------------------------------
B-------------1--0-------------------------------------
G----------2-------------------------------------------
D------------------------------------------------------
A------------------------------------------------------
E------------------------------------------------------


pleno natural guitarrista
Veterano
# dez/04
· votar


ALGUMA COISA A MAIS

slash_sp
Veterano
# dez/04
· votar


gustavo macaco
huahuahuhauhauhua esse ai e mto complexo

Dark_Dunha
Veterano
# dez/04
· votar


Procura da About a Girl, eh facinho tb.

pleno natural guitarrista
Veterano
# dez/04
· votar


ESSA AÍ EU TAMBEM JÁ SEI

pleno natural guitarrista
Veterano
# dez/04
· votar


ALGUM SOLO TIPO ESSE:[T]
e--9 9 9 0 5 9 5 9 0 5 8 0 5 9 9 8 7 5----------------------------------------------------
B------------------------------------------------------
G------------------------------------------------------
D------------------------------------------------------
A------------------------------------------------------
E------------------------------------------------------

OU ALGUM SOLO DO BARÃO VERMELHO

Rodrigo rvssvr
Veterano
# dez/04
· votar


ahhh cata as tab, não sabe procura?

Homem Cueca
Veterano
# dez/04
· votar


pleno natural guitarrista

e-----------------12-17-12-----------------------------
B--------------13----------13--------------------------
G-----------14----------------14-----------------------
D-----10-14----------------------14-10-----------------
A--12----------------------------------12----------------
E------------------------------------------------------


Rodrigo rvssvr
Veterano
# dez/04
· votar


procura......não é dificil de acha......

VooDoo__
Veterano
# dez/04
· votar


do smells like =]
E------------------------------------------------------------------
B------------------------------------------------------------------
G------------8--10--------8-8---6/5-6 5 -----------------------
D-------10-------------6----------------------8--6--8^8 -6/5--
A------------------------------------------------------------------
E------------------------------------------------------------------

depois fica assim:
D---6--5---6--5----6---5--6-5/3---------6--5---6-5--6--5--6--5/3---

gjsuzigan
Veterano
# dez/04
· votar


pleno natural guitarrista


   t t  t t t t t t t t t t t t t t t  t

e-----9/10/5/2/7/9/86/5/4/4/1/2/3/6/5/4/8/5-----
B-----5/6/9/8/5/4/8/5/4/9/8/5/9/5/6/6/--------
G------------------------------------------------------
D------------------------------------------------------
A------------------------------------------------------
E--------9----5---5---7---/--*--8--9-5-4--6--9------


daniel diord
Veterano
# dez/04
· votar


pleno natural guitarrista
[b][/b]
afffffeeeeeeeeee.....se falo em outro topico q toca a 7 anos????hauihaiuahuiahauihaiuahiuahiauhaiuahuiahuaihuaihauihauihaiuhau iahauihauihauihaiuahuiahauihauihauihauihaiuahuiahiauhauihaiuhauiahiuah uiahiauhuaihauihaiuhauihauahauih.......e ta pedindo solinho do nirvana???/??auahuiahauiahiauhiuahuiahuiahuaihauihauhahaiuhaiuhauia FALA SERIO!!!!!!!!

TASIVA
Veterano
# dez/04
· votar


hauhaouiahoiuaa ok ok...


e------------------------------------------------------
B--------------5-7------5-7------5-7/9--5-7------------------
G------6666-----------6--------6------------6---------------
D------------------------------------------------------
A------------------------------------------------------
E------------------------------------------------------


TASIVA
Veterano
# dez/04
· votar


ô genti...é natal....vamos ser solidários :)

TASIVA
Veterano
# dez/04
· votar



e-----------------------------6-------------------------
B----------------------5--------------------------------
G-----------------4-------------------------------------
D-----------3-------------------------------------------
A------2------------------------------------------------
E--1----------------------------------------------------


The Hellraiser
Veterano
# dez/04
· votar



e------------------------------------------------------
B------------------------------------------------------
G------------------------------------------------------
D------------------------------------------------------
A------------------------------------------------------
E-0-----------0---------------0-------------------0----


TASIVA
Veterano
# dez/04
· votar



e----------------------------------1-1-1-----0---------
B------------------------------------------------------
G------------------------------------------------------
D------------------------------------------------------
A------------------------------------------------------
E--1-1-1--2-2-2---3-3-3--4-4-4-------------------------


RainMaker
Veterano
# dez/04
· votar


e-------5---------------------------------------------
B---------------3-------------------------------------
G---------------------------1-------------------------
D---------------------------------------0-------------
A-------------------------------------------------5---
E------------------------------------------------------

TASIVA
Veterano
# dez/04
· votar


RainMaker
pow cara...esse eh muito dificil..não dificulta!!!

The Hellraiser
Veterano
# dez/04
· votar


Ho ho ho, Nirvana? Eu ouvi esse nome? Sim, eu ouvi! Ou melhor, eu li... E quando eu vejo esse nome sabem qual é a primeira coisa que eu penso? Arrá! É isso mesmo... Kurt Cobain! O gênio da guitarra... Começou a tocar logo na infância e impressionou o mundo abusando de seu vituosismo aliado a um magnífico feeling. Eu AMO os solos de Kurt Cobain, só que há uma coisa que gosto mais... Ligar minha guitarra no último, colocar na frente do ampli e ficar ouvindo a microfonia :P huauhahuauhahua

RainMaker
Veterano
# dez/04
· votar


TASIVA
vo por um mais facil pra ele intaum



tah ae um pedacinho de Rising Force do Malmsteen :)

E ||--15h12-------15h12-------15h12-------14h12-------|
B ||--------12-12-------12-12-------12-12-------12-12--|
G ||o--------------------------------------------------------|
D ||o--------------------------------------------------------|
A ||---------------------------------------------------------|
E ||---------------------------------------------------------|


E |-15h12-------17h12-------15h12-------14h12---------|
B |-------12-12-------12-12-------12-12-------12-12----|
G |----------------------------------------------------------|
D |----------------------------------------------------------|
A |----------------------------------------------------------|
E |-----------------------------------------------------------|

TASIVA
Veterano
# dez/04
· votar


vituosismo
ei...ta errado

TASIVA
Veterano
# dez/04
· votar


RainMaker
ah esse ta legal até :)

Dunha
Veterano
# dez/04
· votar


Ta errado este trecho do rising force!

The Hellraiser
Veterano
# dez/04
· votar


TASIVA

É com Z né? :P huahuahuahuauha...

TASIVA
Veterano
# dez/04
· votar


The Hellraiser
Z não cara...é com Cecidilha

The Hellraiser
Veterano
# dez/04
· votar


TASIVA

Uia, verdade... Me desculpe... hehe... Virtuoçismo...

The Hellraiser
Veterano
# dez/04
· votar


Ae, manda um sweep ae e já era rapaz! \o/


E|-20p17-20p17-------17p12-----------------------------8-12--12s15--
B|-------------17s13-------13p10--------------------10--------------
G|-------------------------------9----------------9-----------------
D|---------------------------------10---------10--------------------
A|------------------------------------12-7-12-----------------------
E|------------------------------------------------------------------


TASIVA
Veterano
# dez/04
· votar


The Hellraiser
pow cara esse ta muito facil ó tem um q eh mais dificil:


e------------------------------------------------------
B------------------------------------------------------
G-------------------------6-5-4------------------------
D----------------4--6-5--------------------------------
A-------2--3--1----------------------------------------
E--1--3--2---------------------------------------------


Enviar sua resposta para este assunto
        Tablatura   
Responder tópico na versão original
 

Tópicos relacionados a SOLO