tablatura de no boundaires de michael angelo

    Autor Mensagem
    manowzinho
    Veterano
    # out/04


    aew alguem sabe ? o marisco fez uma video aula ta la na parte de videos aula dele vlw ae

    manowzinho
    Veterano
    # out/04
    · votar


    ajuda ae galera

    Xander
    Veterano
    # out/04
    · votar


    eu axo q tem pra guitar pro no mysongbool igual a dele...eu tenhu tbm c vc kiseh...

    manowzinho
    Veterano
    # out/04
    · votar


    se ser de guitar pro
    pq no meu ta mt rapido

    Fear of the dark
    Veterano
    # out/04
    · votar


    O parte que o Marisco toca na video-aula:

    E||-------------------------|
    B||----------------17-18-20-|
    G||-------------------------|
    D||-------------------------|
    A||-------------------------|
    E||-------------------------|



    --17----------------17----------------17----------------20-18-17------ ----|
    -----20-18-17-18-20----20-18-17-18-20----20-18-17-18-20----------20-18 -17-|
    ---------------------------------------------------------------------- ----|
    ---------------------------------------------------------------------- ----|
    ---------------------------------------------------------------------- ----|
    ---------------------------------------------------------------------- ----|



    --22-20-18----------20-18-17----------18-17-15----------20-18-17------ ----|
    -----------22-20-18----------20-18-17----------18-17-15----------20-18 -17-|
    ---------------------------------------------------------------------- ----|
    ---------------------------------------------------------------------- ----|
    ---------------------------------------------------------------------- ----|
    ---------------------------------------------------------------------- ----|



    --20-18-17------------------------------------------------------------ ----|
    -----------20-18-17--------------------------------------------------- ----|
    --------------------17-15-14----------15-14-12------------------------ ----|
    -----------------------------17-15-14----------15-14-12--------------- ----|
    --------------------------------------------------------15-13-12------ ----|
    -----------------------------------------------------------------15-13 -12-|



    ---------------------------------------------------------------------- ----|
    ---------------------------------------------------------------------- ----|
    --------------------14-12-10----------17-15-14-------------------15-14 -12-|
    -----------15-14-12----------14-12-10----------17-15-14-15-14-12------ ----|
    --15-13-12------------------------------------------------------------ ----|
    ---------------------------------------------------------------------- ----|



    --17~---------------||
    --------------------||
    --------------------||
    --------------------||
    --------------------||
    --------------------||


    Slash Roses
    Veterano
    # dez/04
    · votar


    no ultimateguitar>>>>>>>>>www.ultimate-guitar.com

    Slash Roses
    Veterano
    # dez/04
    · votar


    ah para acha michael angelo, va na letra A>>> Angelo Michael
    otra coisa, na minha opinião a tablatura ta perfeita, soh falta coloca uns hamonicos!!!

    Alan_Domingues
    Veterano
    # dez/04
    · votar


    Eu já transcrevi essa música, transcrevi porque nunca vi uma tab dela. Então coloquei no meu site na parte GUITARRA.

    http://alan.guitar house.com.br

    Junta o endereço ae.

      Enviar sua resposta para este assunto
              Tablatura   
      Responder tópico na versão original
       

      Tópicos relacionados a tablatura de no boundaires de michael angelo