Arpejos e Sweep

    Autor Mensagem
    Nos_FERA_tu
    Veterano
    # abr/03


    Pessoal, não estou conseguindo tirar a "sujeira" do som, ou seja, não consigo abafar as cordas para dar mais clareza ao som quando uso sweep picking em arpejos. Me dêem dicas por favor! Ah se alguém tiver tabs de arpejos, maiores, menores diminutos eu agradeceria.

    guitar4ever
    Veterano
    # abr/03
    · votar


    meu isso e fodaaaaa , sweep e arpejos mas tipo todo mundo suja e ( muito no comeco) quando esta entrando nessa area de voo e qe sweep e arpejos , exige muita tecnica da mao direita e esquerda tem que esta sincronizada para que o som saia limpo e nitido , mas tipo tenta fazer assim .... quando vc toca uma nota ja tira o dedo e passa pra outra conforme for a shape do arpejo , mas como sempre leio e vejo que e verdade nao c pode corre sem aprender a engatinha e anda , isso e que acontece na musica!!! think about it dude!!!!! valew!!!!!!

    caíto
    Veterano
    # abr/03
    · votar


    treino, muito treino... hehehe...
    consegue abafar os arpegios executando-os devagar?

    eu também já coloquei um bocado de exercício de técnica de sweep e arpegio aqui... dá uma procurada em busca!

    caíto
    Veterano
    # abr/03
    · votar


    ah, eu tenho um exercício muito bom pra arpejo, exercício pra independencia dos dedos... mas tem que tar ao vivo pra explicar direitinho...

    Nos_FERA_tu
    Veterano
    # abr/03
    · votar


    caíto
    Devagar até que eu consigo. Vou ver se eu acho esses exercícios.

    Valews!

    caíto
    Veterano
    # abr/03
    · votar


    então!
    faz os exercícios devagar, se preferencia acompanhado de um metronomo, pra depois ir acelerando (aos poucos, sem deixar nota embolar ou fantasma)...
    mas é importante o que o guitar4ever falou! sincronia da sua mão direita com a esquerda... é o principal...

    Nos_FERA_tu
    Veterano
    # abr/03
    · votar


    Eu não achei os exercícios de sweep que vc disse.

    guitar4ever
    Veterano
    # abr/03
    · votar


    CAITO c me parece ue ja ta no mivel que eu to ou ate mais doque eu , vc tem ICQ???? c tive post ai o number pra gente tc, e tenho uns materiais legais , a gente pod conversa e troca ideias valew!!!!!1

    Yngwie
    Veterano
    # abr/03
    · votar


    tipo começa praticando devagar e depois vai aumentando eh o melhor jeito...

    guitar4ever
    Veterano
    # abr/03
    · votar


    e isso ai o malmsteen sabe tudo dessa tecnica foi ele quem levou ea ao extremo hauahauaha!!!!!valew!!!!!

    caíto
    Veterano
    # abr/03
    · votar


    AH! ACHEI! ´=D
    Na verdade, é só mais teoria, mas posso colocar uns arpejos aplicado em frases pra você (mais tarde, mais tarde... olha a hora!)

    Arpejos de Acordes:

    F
    e-------1-5----------
    B-----1-----1--------
    G---2---------2------
    D-3-------------3----

    Fm
    e-------1-5-----------
    B-----1-----1---------
    G---1---------1-------
    D-3-------------3-----

    C
    e-----------3-8-3------------
    B---------5-------5----------
    G-------5-----------5--------
    D-----5---------------5------
    A-3-7-------------------7-3--

    Cm
    e-----------3-8-3-------------
    B---------4-------4-----------
    G-------5-----------5---------
    D-----5---------------5-------
    A-3-6-------------------6-3---

    E
    e---------4-7-4--------
    B-------5-------5------
    G-----4-----------4----
    D-2-6---------------6-2

    Em
    e---------3-7-3--------
    B-------5-------5------
    G-----4-----------4----
    D-2-5---------------2-5

    Esses arpejos acima são os desenhos de arpejos mais comuns...




    Exercício avançando 1/2 tom
    e-5-2---------------2-5
    B-----3-----------3----
    G-------2------ -2------
    D---------4---4--------
    A-----------5----------

    e-5-1---------------1-5
    B-----3-----------3----
    G-------2-------2------
    D---------3---3--------
    A-----------5----------


    Arpejos para graus da pentatônica de Lá:

    C(3ª menor):
    e--------------------------7-10-8-7-----------------------
    B-----------------------8------------8--------------------
    G------------------7-9-----------------9------------------
    D-------------7-10------------------------10-7------------
    A-------7-10----------------------------------------------
    E-8-10----------------------------------------------------

    D (4ª Justa)
    e-----------8-12-8----------------------------------
    B------- 10---------10-------------------------------
    G-----9---------------9-----------------------------
    D-12---------------------12-10-11------- ---12-------
    A---------------------------------12-10-11----------



    caíto
    Veterano
    # abr/03
    · votar


    guitar4ever
    beleza... podemos trocar umas idéias! :)
    124315009... guarde com carinho...

    Melodic Man
    Veterano
    # abr/03
    · votar


    usa um metronomo.. assim vc vai aumentando o Tempo e calculando a tua melhora.

    Nos_FERA_tu
    Veterano
    # abr/03
    · votar


    Valeu pessoal, mas se alguém tiver mais tabs de arpejos, agradeço =>nosferatucba@hotmail.com

    vitor
    Veterano
    # jan/04
    · votar


    tenho dificuldade nisso

    GuitarHouse
    Veterano
    # jan/04
    · votar


    treina

    Kirk Malmsteen
    Veterano
    # jan/04
    · votar


    quando eu to tocando alto e tiro o dedo após tocar dá som de pulloff :/

    RaphaRhoads
    Veterano
    # jan/04
    · votar



    e----8-5---5-l-7-4---4-l-12-9----9-l-13-10----10-l-----
    B--------5---l-----6---l------10---l-------10----l-----
    G------------l---------l-----------l-------------l-----
    D------------l---------l-----------l-------------l-----
    A------------l---------l-----------l-------------l-----
    E------------l---------l-----------l-------------l-----


    Um exercicio legal pra começa

    Mulx
    Veterano
    # jan/04
    · votar


    Aew vo manda uma tabs...
    Os arpejos diminutos são formados por 1 tom e 1/2.

    Se vcs conseguirem fazer isso bem rápido fica muito legal !!!

    e---------------------7-10-----------------------|-----
    B------------------6-9---------------------------|-----
    G--------------4-7-------------------------------|-----
    D----------3-6-----------------------------------|-----
    A------2-5---------------------------------------|-----
    E-1-4--------------------------------------------|-----

    Fazendo-se em ciclos de terças fica melhor ainda...dando um efeito meio melódico...


    ICQ: 122848211

    banido
    Veterano
    # dez/04
    · votar


    Ae mas sweep precisa abafar e tocar nota por nota tipo toca abafa e toca otra?

    Guilherme Valle
    Veterano
    # abr/05
    · votar


    alguns dos execicios q eu uso:

    Am
    
    e----------------12h17----------------|
    B-------------13-------13-------------|
    G----------14-------------14----------|
    D-------14-------------------14-------|repete 300x ou +
    A--12h15------------------------15p12-|
    E-------------------------------------|


    Guilherme Valle
    Veterano
    # abr/05
    · votar


    Dm
    
    e------13h15p13-------13h15p13--|
    B----15-------15--15----------15|
    G--14-----------14--------------|passa pro de baixo
    D-------------------------------|
    A-------------------------------|
    E-------------------------------|


    Bb(agora nao lembro bem a sequencia mas acho q era Bb se nao for é só B)
    
    e--------10h12p10------10h12p10---|
    B------11--------11--11--------11-|
    G----10------------10-------------|
    D---------------------------------|passa pro de baixo
    A---------------------------------|
    E---------------------------------|


    C
    
    e--------12h15p12-------12h15p12---|
    B------13--------13---13--------13-|
    G----12-------------12-------------|volta pro primeiro
    D----------------------------------|
    A----------------------------------|
    E----------------------------------|

    depois disso repete até fazer buracos no braço da guitarra ou até sangrarem os dedos!

    Guilherme Valle
    Veterano
    # abr/05
    · votar


    errei a tab

    no primeiro modo na 1ª corda é e---13h17p13------
    no segundo modo na 1ªcorda é e---10h13p10------
    o terceiro acho q ta certo....

    heathcliff
    Veterano
    # abr/05
    · votar


    olá gente...eu sinto dificuldade em abafar os arpejos, mas aí eu sei que é questão de treino e de aperfeiçoamento de técnica, mas abafar arpejos com pestanas eu não consigo, o som sai embolado demais com o drive... eu tenho que tipo, fazer a pestana e ir descolando o dedo aos poucos? tipo, eu vou subindo das cordas agudas para as graves, aí eu vou soltando o dedo aos poucos? começando de baixo? e se for assim como faz pra ir das graves para as agudas? ou será que o segredo está 100% em abafar direito usando a mão direita e manter a pestana normalmente?

    obrigado

    Pedroppl
    Veterano
    # abr/05
    · votar


    as vezes pode se pq vc ta segurando umas notas(ficando com o dedo emcima mesmo depois de toca) enquanto vai9 tocando outras, ai o som fica meio embolado

    Stephan.Forte
    Veterano
    # fev/12
    · votar


    estou apanhando do arpejo do solo da On The Backs Of Angels, esse:


    e-----12-15p12------------------------------12-15p12------
    B---------------13----------------------13----------------
    G------------------12----------------12-------------------
    D---------------------14----------14----------------------
    A------------------------15-12h15-------------------------
    E---------------------------------------------------------


    não é difícil, consigo fazer ele bem no clean, mas não consigo fazer ele limpo com distorção, quando tiro o dedo da corda B ela fica soando, mesmo quando eu abafo, e se eu abafar muito o som fica "fraco"

    só falta isso pra mim tirar o solo, to praticando ele por horas todo dia mas não parece surtir efeito...

    Thyago_Trajano
    Veterano
    # fev/12
    · votar


    A regulagem da distorçao, assim como amplificador conta muito...usando muito ganho é complicado mesmo! (nao sei se é o seu caso)

    Qual o equipo? Tem som gravado? Por enquanto, poe uma "xuxinha" de cabelo, mas nao vicia...ahahhahha

    O jeito melhor (pelo menos para mim) é tentar fazer um Palm Mute, pouco expressivo, que abafe o suficiente para nao soar, e o suficiente para nao "matar" a nota....

    Stephan.Forte
    Veterano
    # fev/12
    · votar


    Meu ampli é muito bom, é um Roland Cube 30x, o primeiro ampli que vi que não xia com o ganho no máximo e num volume alto, sem falar nos efeitos que vem nele, como Chorus, Reverb, Delay...
    não gravei nada ainda pq não tenho camera que preste, no meu cel a qualidade fica muito baixa...
    quando à XUXINHA eu temo viciar, porque já treinei com uma flanela amarrada no braço e o som fica PERFEITO! lindo mesmo ( sou iniciante, ainda me impressiono quando faço algo legal!)

      Enviar sua resposta para este assunto
              Tablatura   
      Responder tópico na versão original
       

      Tópicos relacionados a Arpejos e Sweep