Solos médios/grandes

Autor Mensagem
Blade
Veterano
# ago/04
· votar


marcio_zav
realmente, acho q foi o solo q mais contribuiu pra melhorar meus bends, nos dias q tirei ele meus dedos ficavam moídos
codec
é ele msm se quiser eu posto a tab dele, tá certinho, meu professor corrigiu

codec
Veterano
# ago/04
· votar


Blade
eu ficaria agredecido!

Blade
Veterano
# ago/04 · Editado por: Blade
· votar


November Rain- 1ºsolo

e-------------------8----------------------------------8-----
B--8b10--8b10rb8b10---8b10--8p6-8b10rb8b10--8b10rb8b10-------
G------------------------------------------------------------
D------------------------------------------------------------
A------------------------------------------------------------
E------------------------------------------------------------
e-----------------8----------------------------
B-8b10rb8--5b6rb5--5b6rb5b6-5----------8-------
G-----------------------------7p5--7s9---9s7-5-
D----------------------------------------------
A----------------------------------------------
E----------------------------------------------
e-------------------8----------------------------------8-----
B--8b10--8b10rb8b10---8b10--8p6-8b10rb8b10--8b10rb8b10-------
G------------------------------------------------------------
D------------------------------------------------------------
A------------------------------------------------------------
E------------------------------------------------------------
e-8b10rb8--10b12--8h10p8----8---------13p12----13p12----13b15
B------------------------10---11b13---------13-------13------
G------------------------------------------------------------
D------------------------------------------------------------
A------------------------------------------------------------
E------------------------------------------------------------
e-13-----12-13--12h13p12--------12-13b15--13p12-12b13--12----
B-----15-----------------15--15------------------------------
G------------------------------------------------------------
D------------------------------------------------------------
A------------------------------------------------------------
E------------------------------------------------------------

e-20--19-19-19s17-17-17s15-15-15s13--12--12h13p12s10-12b13---
B------------------------------------------------------------
G------------------------------------------------------------
D------------------------------------------------------------
A------------------------------------------------------------
E------------------------------------------------------------

e-12-13-12h13p12-------12------------------------------------
B----------------15-13----13--15h17p15-13-15--12h13-12h13p12-
G------------------------------------------------------------
D------------------------------------------------------------
A------------------------------------------------------------
E------------------------------------------------------------


2 veses
e---------------------------|---------------|----------------
B-------12---10-------------|------------13-|----------------
G-14p12---12----10-12-10-9--|-10h12p10s9----|-10h12p10s9-----
D---------------------------|---------------|----------------
A---------------------------|---------------|----------------
E---------------------------|---------------|----------------
e--------15--------------------------------------------
B--15b17----15-13--------------------------------------
G------------------------------------------------------
D------------------------------------------------------
A------------------------------------------------------
E------------------------------------------------------

obs: b= bend
rb= reverse bend
s=slide
h= hammer-on
p=pull-off

o primeiro solo tá aí, é um pouco complicado mas não é difícil, é só pegar firme nele q sai, e vá sempre ouvindoa musica pra pegar o tempo falow

Blade
Veterano
# ago/04
· votar


alguém pode separar as tabs ae???

Blade
Veterano
# ago/04
· votar


November Rain- 1ºsolo

e-------------------8----------------------------------8-----
B--8b10--8b10rb8b10---8b10--8p6-8b10rb8b10--8b10rb8b10-------
G------------------------------------------------------------
D------------------------------------------------------------
A------------------------------------------------------------
E------------------------------------------------------------
|
|
e-----------------8----------------------------
B-8b10rb8--5b6rb5--5b6rb5b6-5----------8-------
G-----------------------------7p5--7s9---9s7-5-
D----------------------------------------------
A----------------------------------------------
E----------------------------------------------
|
|
e-------------------8----------------------------------8-----
B--8b10--8b10rb8b10---8b10--8p6-8b10rb8b10--8b10rb8b10-------
G------------------------------------------------------------
D------------------------------------------------------------
A------------------------------------------------------------
E------------------------------------------------------------
|
|
e-8b10rb8--10b12--8h10p8----8---------13p12----13p12----13b15
B------------------------10---11b13---------13-------13------
G------------------------------------------------------------
D------------------------------------------------------------
A------------------------------------------------------------
E------------------------------------------------------------
|
|
e-13-----12-13--12h13p12--------12-13b15--13p12-12b13--12----
B-----15-----------------15--15------------------------------
G------------------------------------------------------------
D------------------------------------------------------------
A------------------------------------------------------------
E------------------------------------------------------------
|
|
e-20--19-19-19s17-17-17s15-15-15s13--12--12h13p12s10-12b13---
B------------------------------------------------------------
G------------------------------------------------------------
D------------------------------------------------------------
A------------------------------------------------------------
E------------------------------------------------------------
|
|
e-12-13-12h13p12-------12------------------------------------
B----------------15-13----13--15h17p15-13-15--12h13-12h13p12-
G------------------------------------------------------------
D------------------------------------------------------------
A------------------------------------------------------------
E------------------------------------------------------------
|
|
2 veses
e---------------------------|---------------|----------------
B-------12---10-------------|------------13-|----------------
G-14p12---12----10-12-10-9--|-10h12p10s9----|-10h12p10s9-----
D---------------------------|---------------|----------------
A---------------------------|---------------|----------------
E---------------------------|---------------|----------------
|
|
e--------15--------------------------------------------
B--15b17----15-13--------------------------------------
G------------------------------------------------------
D------------------------------------------------------
A------------------------------------------------------
E------------------------------------------------------

obs: b= bend
rb= reverse bend
s=slide
h= hammer-on
p=pull-off

agora acho q vai

Blade
Veterano
# set/04
· votar


codec
e ae, conseguiu tirar???

Disappear through her eyes
Veterano
# set/04
· votar


"Confortably Numb" e "Another brick in the wall pt.2" dos Pink Floyd são dois excelentes temas e os solos ñ são mt díficeis. Apenas precisam de treino. São do álbum The Wall, excelente álbum de 1979.

pEACE;-)

ShAw
Veterano
# set/04
· votar


comfortably numb eh mtoooooooo lcooooooo
foi o primeiro solo q tirei na vida... eh um dos q mais curto... esse solo eh de mais... treina esse codec..
e another brick the walll eh super facilll e treina mto.. principalmente seu tempo d reacao e bends

Homem Cueca
Veterano
# set/04
· votar


Disappear through her eyes
Another Brick On the wall necessita de controle de afinação de bend impecável...não recomendo a iniciantes.

Disappear through her eyes
Veterano
# set/04
· votar


Sim. Tens razão. Mas se o iniciante tiver guitarra electrica, acho k ñ há motivo para ñ começar a experimentar bends. Agora para CODEC: Outra escolha U2- Sunday Bloody Sunday ;-)

Enviar sua resposta para este assunto
        Tablatura   
Responder tópico na versão original
 

Tópicos relacionados a Solos médios/grandes