Dúvida para improvisar!!!

    Autor Mensagem
    Blade
    Veterano
    # mai/04


    ae, é tipo a escala de G maior tem como relativa a de E menor, o q vai definir se meu improviso é em G ou em Em???

    00F Rocker
    Veterano
    # mai/04
    · votar


    num eh isso tpo se vc for fazer pentatonica a escala de G vai ser menor a relativa vai ser a G maior

    Blade
    Veterano
    # mai/04
    · votar


    00F Rocker
    não entendi o q vc quis dizer

    DeFoDoN
    Veterano
    # mai/04
    · votar


    00F Rocker
    tbm naum

    00F Rocker
    Veterano
    # mai/04
    · votar


    kralho...tpo

    e---------------------------------------------------------3 6
    B-----------------------------------------------------3-6---
    G-----------------------------------------3-----5--------
    D------------------------------3---5---------------------
    A------------------3------5------------------------------
    E------3-----6-------------------------------------------


    esa eh a pentatonica menor de G e a maior eh

    e-------------------------------------------------------12 15
    B-------------------------------------------------12 15---
    G---------------------------------------12----14-----------
    D--------------------------12----14------------------------
    A--------------12---14-------------------------------------
    E---12---15------------------------------------------------



    e ssa eh a maior tpose vc usar a maior o tom vai continuar sendo G

    HARD_ROCKEIRO
    Veterano
    # mai/04
    · votar


    Blade

    O q vai definir é a harmonia da música.
    Pela cadência da música, vc saberá se o tom é G ou Em.

    Motley Crue
    Veterano
    # mai/04
    · votar


    Blade
    cara, se o tom da musica eh G, vc pode usar a escala tanto no tom de G quanto de Em, pq sao as mesmas notas, sao apenas digitacoes diferentes pras mesmas notas, saco? faz o seguinte, pega a tab que postaram aih das pentas, e coloca notas no lugar de casas, nas duas tabs, vc vai ver o que eu to falando, se vc olhar bem, as notas sao iguais, sao apenas, nesse caso, 5 notas iguais,, saco?! entao vc pode usar nos dois tons, pq eh a mesma coisa...

    era isso sua duvida? pq num entendi muito bem...
    espero ter ajudadp. =)

    Blade
    Veterano
    # mai/04
    · votar


    00F Rocker
    Motley Crue
    HARD_ROCKEIRO
    ae valew, mas é tipo assim, o q vai definir se meu improviso é em G ou Em é a base q eu vou estar improvisando???

    Motley Crue
    Veterano
    # mai/04
    · votar


    Blade
    vc quer sabe qual serah o tom da musica, certo?? pq se o TOM for G vc pode usar G e Em, ao mesmo tempo pra solar, e se for Em a mesma coisa, nesse caso, nao vai mudar muito, de qualquer jeito vc pode usar as mesmas escalas...

    MacCa
    Veterano
    # jun/04
    · votar


    Mas se for Em você pode improvisar em cima da escala natural, ou da harmônica ou da melódica de Em.
    Veja qual é a tonalidade mais grave do último acorde da música, essa tonalidade é o tom da música(nesse exemplo, se for sol então o tom é G, se for mi, então é Em). Para identificar a tonalidade através da melodia, tente achar na melodia a sétima alterada de meio tom da escala menor harmônica, se houver é quase certo que a música está na tonalidade menor, senão, ela está na relativa maior.

      Enviar sua resposta para este assunto
              Tablatura   
      Responder tópico na versão original
       

      Tópicos relacionados a Dúvida para improvisar!!!