hard rock band!!!!quando????

Autor Mensagem
espectro
Veterano
# mar/04


quando sair quero ser o primeiro a me inscrever!!!! ae galera do heavy metal band mandem seus solos logo pra gente faze a hard band!!!!

Tripa Seca
Veterano
# mar/04
· votar


boa ideia..

alguem tem uma base legal?

pagode alto astral
Veterano
# mar/04
· votar


Ai guitarristas que vcs acham de usar uma base ja consagrada do hard rock?

Alguem tem alguma sugestão?

srvaughan
Veterano
# mar/04
· votar


Back in Black

pagode alto astral
Veterano
# mar/04
· votar


eu ja vou dar a minha idéia:

Rock you Like a Hurricane - Scorpions

canilupi
Veterano
# mar/04
· votar


qnd sai a pagode band?
quero entrar :~]

pagode alto astral
Veterano
# mar/04
· votar


canilupi

essa nem a pau sai huahauuahuha

edson_slash
Veterano
# mar/04
· votar


soh

espectro
Veterano
# mar/04
· votar


canilupi pode usar cavakinho com distorçaum? huahahumas

essa ideia de base consagrada e massa!!! minha sugestão: unchained do van halen.flw

Soulface
Veterano
# mar/04
· votar


pagode alto astral
essa nem a pau sai
Aguarde e confie! hehehehe

Tripa Seca
Veterano
# mar/04
· votar


pagode alto astral

boa ideia velho...

sugiro highway star

pagode alto astral
Veterano
# mar/04
· votar


e ai galera vamos opinar .

eu e o Dave fazemos qualquer base ai , é so eleger uma.

Dave Murray
Veterano
# mar/04
· votar


aeeeee galera... deem dicas ai... o qual a maioria quiser eu e o pagode gravamos ( se o IronMaiden tbm quiser colaborar =] ) ...fico com a base do pagode... Here I'am, Rock You Like A Hurricaaaaaannnnne !!

Irmao_Caminhoneiro_Shell
Veterano
# mar/04
· votar


pagode alto astral
eu ja vou dar a minha idéia:

Rock you Like a Hurricane - Scorpions


Idem

ServeTheServants
Melhor arranjo
Prêmio FCC violão 2008
# mar/04
· votar


qnd sai a pagode band?
Já em projeto faz mais de uma semana isso.
Esperem e verão ehhe.
Joazitorossi, Eu e grow na pagode band ... e quem quiser entrar tambem.

Soulface
Veterano
# mar/04 · Editado por: Soulface
· votar


ServeTheServants
Me coloca nessa aí!!!

ServeTheServants
Melhor arranjo
Prêmio FCC violão 2008
# mar/04
· votar


Soulface
Ok ... vai lá _O/

Soulface
Veterano
# mar/04
· votar


Boa tarde pra qm fica! Falow ae galera...

espectro
Veterano
# mar/04
· votar


vou na pressão.... like a hurricane!!!

FanDeGuitarra
Veterano
# mar/04
· votar


nessa eu tbm quero participar

Dave Murray
Veterano
# mar/04
· votar


aeee. hurricane tah liderando... =]

pagode alto astral
Veterano
# mar/04
· votar


Blz!!

Fica Hurricane então?

Zakk_Wylde
Veterano
# mar/04
· votar


pagode alto astral
por mim td bem

Dave Murray
Veterano
# mar/04
· votar


aeeee.. mas ae galera... vamo esperar terminar o Metal & Bass Band.. senao o Iron vai ficar sobrecarrega com tanta gravaçao junta.. blz ? o metal band acaba domingo.. o bass band tah indo rapido tbm.. logo logo a gente faz esse aqui.. =]

ServeTheServants
Melhor arranjo
Prêmio FCC violão 2008
# mar/04
· votar


Dave Murray
Não me esquece de por dentro dessa hein ehe. Hard Rock eu curto muito.

Dave Murray
Veterano
# mar/04
· votar


ServeTheServants blz.. quando tiver liberado pra fazer eu abro um topico pra isso. =]

Agente Smith
Veterano
# mar/04
· votar


Putz!
Vamos fazer um com a base de "Rock 'n' Roll All Night"!E bem simples solar em cima!

Aqui vai a tab das duas guitarras

#-----------------------------PLEASE NOTE---------------------------------#

# This file is the author´s own work and represents their interpretation #
# of the song. You may only use this file for private study, scholarship, #
# or research. #
# All transcriptions on this site is the property of Kiss Tabs Brasil and #
# cannot be used on any other website, ftp site or archive without #
# permission from Kiss Tabs Brasil #
#--------------------------------------------------------------------- ----#

ROCK AND ROLL ALL NITE (from the KISS CD "DRESSED TO KILL")
--------------------

Transcribed by Emil Ortenmark, emil@kissasylum.com

Tuned down 1/2-step

Comments: This tab was a big surprise for me. First because I realised that
the three comercially available tabs of this song absolutely sucked. The
guys who did them can have no knowledge of KISS at all and no ears to boot.
Second, and I'm ashamed to admit this, I didn't realsie that the studio
version didn't have a solo. I was sitting there quietly transcribing thinking
"OK, time for the first riff and then a shuffle under the solo". But there
was no solo. Egg all over my face. Anyway, the song is easy, just make sure
that you look closely at Paul's rhythm part during the verse (Rhy. Figs 1a
and 2a) which are a combination of standard KISS moves but in a new way.


Key:
/ = slide up
\ = slide down
b = bend (whole step)
b^ = bend (1/2 step)
b^^ = bend (1 1/2 steps)
pb = pre-bend
r = release-bend
t = tap with righthand finger
h = hammer-on
p = pull-off
~ = Vibrato
* = Natural Harmonic
#(#) = Trill
** = Artificial Harmonic
x = Dead notes (no pitch)
P.M. = Palm mute (- -> underneath indicates which notes)
(\) = Dive w\bar
(/) = Release w\bar
Tp = Tap w\plectrum
Rhythm Fig. 1

Eb|----------------------------------------------------|
Bb|------7h8-----7h8-----7----8----8p-7----------------|
Gb|------7-------7-------7----7----7-------------------|
Db|------7h9-----7h9-----7----9----9p-7----------------|
Ab|----------------------------------------------------|
Eb|----------------------------------------------------|
Rhythm Fig. 2a

Eb|----------------------------------------------------|
Bb|--2--------------9----9--10p-9--10--9---------------|
Gb|--2--------------9----9--11p-9--9---9---------------|
Db|--2--------------9----9--9------11--9---------------|
Ab|--0------------------------------------0------------|
Eb|----------------------------------------------------|

Rhythm Fig. 2b

Eb|----------------------------------------------------|
Bb|----------------------9-----------------------------|
Gb|--14-14-14------------9-----------------------------|
Db|--14-14-14------------9-----------------------------|
Ab|--12-12-12------------7-----------------------------|
Eb|----------------------------------------------------|

Rhythm Fig. 3a

Eb|----------------------------------------------------|
Bb|--7----7--8p-7--8--7----9----9--10p-9--10--9--------|
Gb|--7----7--9p-7--7--7----9----9--11p-9--9---9--------|
Db|--7----7--7-----9--7----9----9--9------11--9--------|
Ab|----------------------------------------------------|
Eb|---------------------------------------------(12\)--|

Rhythm Fig. 3b

Eb|----------------------------------------------------|
Bb|--7--------------9----------9--9--------------------|
Gb|--7--------------9----------9--9--------------------|
Db|--7--------------9----------9--9--------------------|
Ab|--5--------------7----------7--7--------------------|
Eb|----------------------------------------------------|

Rhythm Fig. 4a

Eb|----------------------------------------------------|
Bb|----------------------------------------------------|
Gb|--10----10------------------------------------------|
Db|--10----10--12-----10----12--12----12--14------12---|
Ab|--8-----8---8---8--8-----8---10----10--10--10--10---|
Eb|----------------------------------------------------|

Eb|----------------------------------------------------|
Bb|--------------12\-----------------------------------|
Gb|--------------12\-----------------------------------|
Db|--12--14------12\-----------------------------------|
Ab|--10--10--10--10\-----------------------------------|
Eb|----------------------------------------------------|

Rhythm Fig. 4b

Eb|----------------------------------------------------|
Bb|----------------------------------------------------|
Gb|----------------------------------------------------|
Db|--10----10--12-----10----12--12----12--14------12---|
Ab|--8-----8---8---8--8-----8---10----10--10--10--10---|
Eb|----------------------------------------------------|



Eb|----------------------------------------------------|
Bb|----------------------------------------------------|
Gb|----------------------------------------------------|
Db|--12--14------12\-----------------------------------|
Ab|--10--10--10--10\-----------------------------------|
Eb|----------------------------------------------------|
Rhythm Fig. 5a

Eb|----------------------------------------------------|
Bb|----------------------------------------------------|
Gb|--2-------------------------------------------------|
Db|--2-------------------------------------------------|
Ab|--0-------------------------------------------------|
Eb|----------------------------------------------------|



Eb|----------------------------------------------------|
Bb|--7-------------7--7----9--------------9--9---------|
Gb|--7-------------7--7----9--------------9--9------9--|
Db|--7----7--9-----7--7----9----9--11-----9--9--11--9--|
Ab|--5----5--5--5--5--5----7----7--7---7--7--7--7---7--|
Eb|----------------------------------------------------|
Rhythm Fig. 5b

Eb|----------------------------------------------------|
Bb|----------------------------------------------------|
Gb|--9-------------------------------------------------|
Db|--7-------------------------------------------------|
Ab|--0-------------------------------------------------|
Eb|----------------------------------------------------|



Eb|----------------------------------------------------|
Bb|----------------------------------------------------|
Gb|----------------------------------------------------|
Db|--7----7--9-----7--7----9----9--11-----9--9--11--9--|
Ab|--5----5--5--5--5--5----7----7--7---7--7--7--7---7--|
Eb|----------------------------------------------------|
Rhythm Fig. 6a

Eb|----------------------------------------------------|
Bb|----------------------------------------------------|
Gb|--2-------------------------------------------------|
Db|--2-------------------------------------------------|
Ab|--0-------------------------------------------------|
Eb|----------------------------------------------------|
Rhythm Fig. 6b

Eb|----------------------------------------------------|
Bb|----------------------------------------------------|
Gb|--9-------------------------------------------------|
Db|--7-------------------------------------------------|
Ab|--0-------------------------------------------------|
Eb|----------------------------------------------------|


ROCK AND ROLL ALL NITE
Paul Stanley, Gene Simmons

[Rhy. Fig 1]
[Rhy. Fig 2a w/ Rhy. Fig 2b] (2x)

[Rhy. Fig 2a w/ Rhy. Fig 2b] (2x)
You show us everything you've got
You keep on dancin' and the room gets hot
[Rhy. Fig 3a w/ Rhy. Fig 3b]
You drive us wild, we'll drive you crazy
[Rhy. Fig 1]

[Rhy. Fig 2a w/ Rhy. Fig 2b] (2x)
You say you wanna go for a spin
The party's just begun, we'll let you in
[Rhy. Fig 3a w/ Rhy. Fig 3b]
You drive us wild, we'll drive you crazy
[Rhy. Fig 1]

[Rhy. Fig 4a w/ Rhy. Fig 4b]
You keep on shoutin', you keep on shoutin'

[Rhy. Fig 5a w/ Rhy. Fig 5b] (2x)
I wanna rock and roll all nite and party every day
I wanna rock and roll all nite and party every day
[Rhy. Fig 6a w/ Rhy. Fig 6b]
I wanna rock and roll all nite and party every day
I wanna rock and roll all nite and party every day
[Rhy. Fig 1]

[Rhy. Fig 2a w/ Rhy. Fig 2b] (2x)
You keep on saying you'll be mine for a while
You're lookin' fancy and I like your style
[Rhy. Fig 3a w/ Rhy. Fig 3b]
You drive us wild, we'll drive you crazy
[Rhy. Fig 1]

[Rhy. Fig 2a w/ Rhy. Fig 2b] (2x)
You show us everything you've got
Baby, baby that's quite a lot
[Rhy. Fig 3a w/ Rhy. Fig 3b]
And you drive us wild, we'll drive you crazy
[Rhy. Fig 1]

[Rhy. Fig 4a w/ Rhy. Fig 4b]
You keep on shoutin', you keep on shoutin'

[Rhy. Fig 5a w/ Rhy. Fig 5b] (2x)
I wanna rock and roll all nite and party every day
I wanna rock and roll all nite and party every day
[Rhy. Fig 6a w/ Rhy. Fig 6b]
I wanna rock and roll all nite and party every day
I wanna rock and roll all nite and party every day

[Rhy. Fig 5a w/ Rhy. Fig 5b] (repeat and fade)
I wanna rock and roll all nite and party every day
I wanna rock and roll all nite and party every day
I wanna rock and roll all nite and party every day
I wanna rock and roll all nite and party every day
I wanna rock and roll

e------------------------------------------------------
B------------------------------------------------------
G------------------------------------------------------
D------------------------------------------------------
A------------------------------------------------------
E------------------------------------------------------


Baixo

#-----------------------------PLEASE NOTE--------------------------------#

# This file is the author¥s own work and represents their interpretation #
# of the song. You may only use this file for private study, scholarship,#
# or research. # # #
# All transcriptions on this site is the property of KISS Asylum and #
# cannot be used on any other website, ftp site or archive without #
# permission from KISS Asylum. #
#--------------------------------------------------------------------- ---#

ROCK AND ROLL ALL NITE (from the KISS CD "DRESSED TO KILL")
--------------------

Transcribed by Emil Ortenmark, emil@kissasylum.com

Tuned down 1/2-step

Comments: Just keep it steady. Gene doesn't do much except keep the song
moving with these somewhat busy lines.


Key:
/ = slide up
\ = slide down
b = bend (whole step)
b^ = bend (1/2 step)
b^^ = bend (1 1/2 steps)
pb = pre-bend
r = release-bend
t = tap with righthand finger
h = hammer-on
p = pull-off
~ = Vibrato
* = Natural Harmonic
#(#) = Trill
** = Artificial Harmonic
x = Dead notes (no pitch)
P.M. = Palm mute (- -> underneath indicates which notes)
(\) = Dive w\bar
(/) = Release w\bar
Tp = Tap w\plectrum
Rhythm Fig. 1

Gb|------------------------------------------------|
Db|------------------------------------------------|
Ab|-----------------------7----0--5--0--4--2-------|
Eb|--5--0--3--0--2--0--0---------------------------|
Rhythm Fig. 2

Gb|--------------------------------------------------|
Db|--------------------------------------------------|
Ab|-------------------------7----0--5--0--4--2-------|
Eb|--5----0--3--0--2--0--0---------------------------|



Gb|--------------------------------------------------|
Db|--------------------------------------------------|
Ab|-------------------------7----7--5--0--4--2--4----|
Eb|--5----0--3--0--2--0--0---------------------------|
Rhythm Fig. 3a

Gb|--------------------------------------------------|
Db|--------------------------------------------------|
Ab|--5----5--4----2--0--0--7----7--5----4\-2---------|
Eb|--------------------------------------------------|
Rhythm Fig. 3b

Gb|--------------------------------------------------|
Db|--------------------------------------------------|
Ab|--5----5--4----2--0--0--7----7--5--5--4--4--2-----|
Eb|--------------------------------------------------|
Rhythm Fig. 4

Gb|--------------------------------------------------|
Db|--------------------------------------------------|
Ab|--------------------------------------------------|
Eb|--0--1----1--1---1--1--3--3--3--3--3--3--3--3--3--|
Rhythm Fig. 5

Gb|--------------------------------------------------|
Db|--------------------------------------------------|
Ab|--0-----------------------------------------------|
Eb|--------------------------------------------------|



Gb|--------------------------------------------------|
Db|--------------------------------------------------|
Ab|--5----0--4--0--2--0--0--7----7--5--0--4\-2--2----|
Eb|--------------------------------------------------|
Rhythm Fig. 6

Gb|--------------------------------------------------|
Db|--------------------------------------------------|
Ab|--0-----------------------------------------------|
Eb|--------------------------------------------------|

Riff 1

Gb|--------------------------------------------------|
Db|--------------------------------------------------|
Ab|--------------------------------------------------|
Eb|-------------------------------------------3--4---|
ROCK AND ROLL ALL NITE
Paul Stanley, Gene Simmons

[Riff 1]
[Rhy. Fig 1] (2x)

[Rhy. Fig 2]
You show us everything you've got
You keep on dancin' and the room gets hot
[Rhy. Fig 3a]
You drive us wild, we'll drive you crazy
[Riff 1]

[Rhy. Fig 2]
You say you wanna go for a spin
The party's just begun, we'll let you in
[Rhy. Fig 3b]
You drive us wild, we'll drive you crazy

[Rhy. Fig 4]
You keep on shoutin', you keep on shoutin'

[Rhy. Fig 5] (2x)
I wanna rock and roll all nite and party every day
I wanna rock and roll all nite and party every day
[Rhy. Fig 6]
I wanna rock and roll all nite and party every day
I wanna rock and roll all nite and party every day
[Riff 1]

[Rhy. Fig 2]
You keep on saying you'll be mine for a while
You're lookin' fancy and I like your style
[Rhy. Fig 3a]
You drive us wild, we'll drive you crazy
[Riff 1]

[Rhy. Fig 2]
You show us everything you've got
Baby, baby that's quite a lot
[Rhy. Fig 3a]
And you drive us wild, we'll drive you crazy

[Rhy. Fig 4]
You keep on shoutin', you keep on shoutin'

[Rhy. Fig 5] (2x)
I wanna rock and roll all nite and party every day
I wanna rock and roll all nite and party every day
[Rhy. Fig 6]
I wanna rock and roll all nite and party every day
I wanna rock and roll all nite and party every day

[Rhy. Fig 5] (repeat and fade)
I wanna rock and roll all nite and party every day
I wanna rock and roll all nite and party every day
I wanna rock and roll all nite and party every day
I wanna rock and roll all nite and party every day
I wanna rock and roll


e------------------------------------------------------
B------------------------------------------------------
G------------------------------------------------------
D------------------------------------------------------
A------------------------------------------------------
E------------------------------------------------------


Dogs
Veterano
# mar/04
· votar


Eu sugiro alguma que seja hard rock puro, tipo One Wat To Rock ou Bottoms Up! do Van Halen. Sugiro um hard rock mais cru, mais puro.

Dave Murray
Veterano
# mar/04
· votar


o voto da maioria vence...

Agente Smith
Veterano
# mar/04
· votar


Dogs, mas tipo, essas bandas mais virtuosas como van halen , é bem mais dificil de solar em cima, jah com kiss, ac/dc, é bem mais facil de solar, acdc- praticamente 3 acordes(a,d,e), kiss-1 acordão + 2 com truque de blues(E/b, D/a) saca?
Van hale jah, a base normalmente, apresenta baixo batera e às veses teclado ( ex com teclado : right now, jump, so baixo batera:panama),, dae comprica(somos na maioria inciantes)

Enviar sua resposta para este assunto
        Tablatura   
Responder tópico na versão original
 

Tópicos relacionados a hard rock band!!!!quando????