Quais os acordes q vc mais gostam de fazer?

Autor Mensagem
Grodash
Veterano
# mar/04


os q eu mais gosto são o "A menor" e o "F"...
pq????
sei la, gosto do som deles

Max
Veterano
# mar/04
· votar


Gosto do Som do "La nona", e tem outos que eu invento q nem fico a fim de faze a formacao e ver o nome..hahaha

tommy_iommi
Veterano
# mar/04
· votar


Am, C7+, diminutos em geral...

Mr_Burns
Veterano
# mar/04
· votar


G,F# RLZ

Leandro
Veterano
# mar/04
· votar


Qualquer acorde com 7ª e 9ª... e A2+ =)

AllanFly
Veterano
# mar/04
· votar


E em cima de B sem C.

Alan Matos
Veterano
# mar/04
· votar


Grodash

Gosto muito dos acordes add9, acho uma sonoridade muito bonita.

AllanFly
Veterano
# mar/04 · Editado por: AllanFly
· votar


Gosto tb de E em cima de RATM sem C

GrungeMan
Veterano
# mar/04
· votar


gosto do Cm# !
=)

Fencer
Veterano
# mar/04
· votar


Acho que o Lá menor é imbatível... é um acorde lindo. Sol maior também... mas o Lá menor ainda me chama mais.

brunoepronto
Melhor participante de jam
Prêmio FCC violão 2008
# mar/04
· votar


Acordes com 9, pois soam bonitos até distorcidos.

brunoepronto
Melhor participante de jam
Prêmio FCC violão 2008
# mar/04
· votar


Acordes com 9ª, pois soam bonitos até distorcidos.

7543
Veterano
# mar/04
· votar


Am
Em
:)

Jean
Veterano
# mar/04
· votar


Power chord.

ServeTheServants
Melhor arranjo
Prêmio FCC violão 2008
# mar/04
· votar


Em
Gosto tambem de B7 ...
E Power Chords são bacanas tambem. Mas no violão fica tosco.

maggie
Veterana
# mar/04
· votar


C foi o primeiro acorde que eu fiz....

;-)
Que emoção...

RATM
Veterano
# mar/04
· votar


q merda de topico, mas eu tbm vo opina!!
F#/Bb

the_paranoid
Veterano
# mar/04
· votar


E

TonantE
Veterano
# mar/04
· votar


sol

Gab
Veterano
# mar/04
· votar


G 5 com todas as cordas(-5)e com drive

e----3--------------------------------------------------
B----3--------------------------------------------------
G----0--------------------------------------------------
D----0--------------------------------------------------
A------------------------------------------------------
E----3--------------------------------------------------


Bug
Veterano
# mar/04
· votar


B diminuto.

[]s

bocao
Veterano
# mar/04
· votar


Cb #º*%¨$$²x3=5

Muito loko esse acorde. Eh bastante usado em Jazz...

marcio_zav
Veterano
# mar/04
· votar


G Em....gosto da sonoridade deles. G eh bem alegre, Em meio triste.....

paulao_jazz
Veterano
# mar/04
· votar


acorde com nona (add9). A nona é o segredo do tempero!

Mr Laney
Veterano
# mar/04
· votar


Acordes 7/9 (sem a quinta) , triades invertidas com o baixo parado em alguma nota , pra formar uma harmonia vamp , acho muito legal , caracterizando apenas um modo.

viniciusjau
Veterano
# mar/04
· votar


G

_Wander_
Veterano
# mar/04
· votar


Os acordes tem a função de dar sentido a melodia e sustentar a harmonia, sozinhos não fazem muito sentido...

mais já que to aqui vou opinar...

Os acordes com Sétima maior (7+) na sua primeira inversão (terça no baixo) tem uma sonoridade muit interessante...

sebber
Veterano
# jan/15 · Editado por: sebber
· votar


Revivendo tópico e dando minha contribuição.

Mais acordes? Nomeei algum errado? Façamos a discussão.

Cm/9

e---x----
B---3----
G---0----
D---1----
A---3----
E---x----


G#5-/C#

e---x----
B---4----
G---5----
D---6----
A---6----
E---x----


F5-/7+

e---0----
B---0----
G---2----
D---3----
A---3----
E---1----


F6/7+

e---0----
B---3----
G---2----
D---x----
A---x----
E---1----


Bb9/7+

e---5----
B---6----
G---5----
D---x----
A---x----
E---6----


Am9

e---0----
B---1----
G---4----
D---2----
A---0----
E---x----


Filippo14
Veterano
# jan/15
· votar


Eu gosto de usar os com 7M

F#7M


e--------------------1----------------------------------
B--------------------2----------------------------------
G--------------------3----------------------------------
D--------------------4----------------------------------
A--------------------x----------------------------------
E--------------------x----------------------------------


C#7M

e---------------x---------------------------------------
B---------------1---------------------------------------
G---------------1---------------------------------------
D---------------3---------------------------------------
A---------------4---------------------------------------
E---------------x---------------------------------------



Gosto de usar tambem um com 4/7/9

G4/7/9 OU F/G

e------------------------------------------------------
B----------------1--------------------------------------
G----------------2--------------------------------------
D----------------3--------------------------------------
A----------------x--------------------------------------
E----------------3--------------------------------------


Acordes SUS sao legais

     F#sus7/9       F#sus9     F#sus7      F#sus
e--------4--------------4-----------7----------7----------
B--------4--------------6-----------4----------6----------
G--------4--------------4-----------4----------4----------
D--------4--------------4-----------4----------4----------
A--------x--------------x-----------x----------x----------
E--------x--------------x-----------x----------x----------



Abracao

Marcelo Sobral
Membro
# jan/15
· votar


Power chords.

Enviar sua resposta para este assunto
        Tablatura   
Responder tópico na versão original
 

Tópicos relacionados a Quais os acordes q vc mais gostam de fazer?