Pra quem toca pink floyd....

    Autor Mensagem
    SoRRiSo
    Veterano
    # fev/04


    aee
    arrumei uma tab do solo do pink floyd (comfortably numb).. solo mt manero! hehe... mas num sei se ta certo... eu faço aqui num ta nem parecendo igual... façam vcs ae pra vê o q dá...
    ... só o solo

    ---14vvvvvv-----12-14>15>14------------------------------------------- -----
    ------------------------------15>17vvvvvvvvvv>15--15-14--------------- -----
    ---------------------------------------------------------14----------- -----
    -------------------------------------------------------------14\12vvvv vv---
    ---------------------------------------------------------------------- -----
    ---------------------------------------------------------------------- -----

    --14>12--14>(15)>14--------------------------------------------------- -------
    -----------------------15>17---------15--14--------------------------- -------
    ---------------------------------------------14------------------/12vv vvvv---
    -------------------------------------------------14\12--11--9--7------ -------
    ---------------------------------------------------------------------- -------
    ---------------------------------------------------------------------- -------

    ---------------------------------------------------------------
    ---------------------------------------------------------------
    ---11--------------11\9---9\7vvvvv----9>7------7---9---11>12---
    ----------14--12----------------------------9------------------
    ---------------------------------------------------------------
    ---------------------------------------------------------------

    ---15-14-12---------------------------------------------------
    ------------15-12---------------------------------------------
    ------------------12------------------------------------------
    ---------------------12vvvvvvvv--10\9vvvvvvv---10\9\7vvvvv----
    --------------------------------------------------------------
    --------------------------------------------------------------

    v-- strike note
    -----------------------------------------------------------
    -----------------------------------------------------------
    -11>(12)vvvvvvvv--9>(11)===(11)==>9>7----------------------
    ---------------------------------------7/9\7vvvvvvvvvvv\---
    -----------------------------------------------------------
    -----------------------------------------------------------


    valewzzzzz

    SoRRiSo
    Veterano
    # fev/04
    · votar


    po ning tento não!?

    Toddynho
    Veterano
    # fev/04
    · votar


    A TAB ta praticamente certa (eh do 1o solo, não o solo final).

    SoRRiSo
    Veterano
    # fev/04
    · votar


    Toddynho

    po eu sei q é do 1!

    mas valewz ae ! deve ser eu que to fazendo errado aki!

    Toddynho
    Veterano
    # fev/04
    · votar


    Só pra ajudar:

    os vvvvvvvvvvv indicam vibratto
    Os > e < indicam os bends

    Toddynho
    Veterano
    # fev/04
    · votar


    Eu toco assim:


    ---14~-------------14b15r14-------------------------------------------
    -----------------x------------15b17~~~~~~~~~~r15--15-14---------------
    ----------------x----------------------------------------14-----------
    ---------------x---------------------------------------------14\12-12~
    ----------------------------------------------------------------------
    ----------------------------------------------------------------------

    ---------14b15r14---------------------------------------------------
    ------x--------------15b17~~~------15--14---------------------------
    ------x------------------------------------14------------------/12~~
    ------x----------------------------------------14\12--11--9--7------
    --------------------------------------------------------------------
    --------------------------------------------------------------------

    ---------------------------------------------------------------
    ---------------------------------------------------------------
    ---11--------------11\9---9\7vvvvv----9p7------7---9---11b12~~~
    ----------14--12----------------------------9------------------
    ---------------------------------------------------------------
    ---------------------------------------------------------------

    ------14-15p14-12----------------------------------------------
    ---x--------------15-12----------------------------------------
    --x---------------------12-------------------------------------
    -x-------------------------12~~~~~~--10\9~~~~~~---10\9\7~~~~~~-
    ---------------------------------------------------------------
    ---------------------------------------------------------------

    -----------------------------------------------------------
    -----------------------------------------------------------
    -9b12~~~~~~~~~~~--9b11r9-9b11r9---7~~----------------------
    ---------------------------------------7/9\7~~~~~~---------
    -----------------------------------------------------------
    -----------------------------------------------------------


    Toddynho
    Veterano
    # fev/04
    · votar


    Ae o comecinho saiu errado:


    --------14~~~~--x--14b15r14-------------------------------------------
    ----x-------------------------15b17~~~~~~~~~~r15--15-14---------------
    ---x-----------------------------------------------------14-----------
    --x----------------------------------------------------------14\12-12~
    ----------------------------------------------------------------------
    ----------------------------------------------------------------------


    SoRRiSo
    Veterano
    # fev/04
    · votar


    Toddynho

    valew sangue!!!

      Enviar sua resposta para este assunto
              Tablatura   
      Responder tópico na versão original
       

      Tópicos relacionados a Pra quem toca pink floyd....