Como se faz esse riff?

    Autor Mensagem
    HelderJr
    Veterano
    # fev/04


    Gostaria de saber como eu faço akele riff do inicio da musica Formato Minimo do Skank???

    Brigado

    Cansoneiro
    Veterano
    # fev/04
    · votar


    po kra...
    acho que vai ser dificil achar quem saiba.

    tu nu tira musica ainda naum??????

    HelderJr
    Veterano
    # fev/04
    · votar


    Cansoneiro
    Rapaz eu ate tiro.. mas tenho mto mais facilidade em tirar a parte harmonica (acordes), já os riffs eu n so tao bom nao pq manjo mto pouco de escalas. Pq vc acha q ninguem podera me ajudar??

    Valew

    GuitarHouse
    Veterano
    # fev/04
    · votar


    HelderJr
    Nao precisa saber escalas. É ouvido mesmo.

    Cansoneiro
    Veterano
    # fev/04
    · votar


    GuitarHouse
    isto mesmo...

    e HelderJr
    porq, acho q quase ninguem q leem os topcos curtem skank, eu acho... mas a pesistencia tras a perfeicaum. entaum tente rapaiz.

    HelderJr
    Veterano
    # fev/04
    · votar


    Poxa pessoal.. se eu nao tivesse tentado bastante eu nao estaria pedindo ajuda. Eu pensei q nao custasse nada alguem q sabe o riff passa-lo pra mim.

    Obrigado pelas palavras de ajuda

    Cansoneiro
    Veterano
    # fev/04
    · votar


    nu é isto naum cara. a gente ajuda sim... mas eu por ex naum sei...
    eu disse que a pessistencia traz a perfeicaum e é verdade.
    tem uma musica do metallica...
    the unforguivem. eu fiquei 4 semanas tentando tirar ela.
    e fo a minha primeira,,,
    eu eu so tinha 4 meses de experiencia.
    tenta que tu consegue.. é so naum desnimar.

    GrungeMan
    Veterano
    # fev/04
    · votar


    HelderJr
    eu ajudaria com prazer...mas nunca ouvi falar dessa musica.. ja tento no cifra club !?

    HelderJr
    Veterano
    # fev/04
    · votar


    GrungeMan aki no cifra tem apenas a cifra dela, mas n tem o riff. Valeu pela força,.

    gunsnzeppelins
    Veterano
    # fev/04
    · votar


    Eu acho que é assim:
               Sweep  
    
    e-1------------------------------------------------17
    B----------------------------------12-24-----------21~
    G----------------------------14-15-------27--------22b32
    D---------21--------------13---------------26------18
    A------23-----------16-14--------------------25----19
    E---24--------12-17----------------------------20--20


    canilupi
    Veterano
    # fev/04
    · votar


    gunsnzeppelins
    22b32
    CARÁCA , ehueheuheuehue , acho q tah um poco forçado esse bend ein

    Leandro
    Veterano
    # fev/04
    · votar


    Afina em La q vc faz esse bend facinho =P

    canilupi
    Veterano
    # fev/04
    · votar


    Leandro
    HAUHAUHAIUHAIUHAUHAIUAHUIAHUIAHUIAHAUIHAUIHAIUAHUIAH
    n intendi :(

    GrungeMan
    Veterano
    # fev/04
    · votar


    hauahau o looooko .. só o metal defender é capaz de fazer esse super-ultra bend !

    canilupi
    Veterano
    # fev/04
    · votar


    GrungeMan
    ehh huhuhuhu , eu acho q deve ser 22b23

    GrungeMan
    Veterano
    # fev/04
    · votar


    HelderJr
    cara.... eu creio q seje algo assim:


    e------------------------------------------------------
    B--9-----9-11h12-11--12-----9---11-12/14-14h15--12-14--
    G----10-----------------10-----------------------------
    D------------------------------------------------------
    A------------------------------------------------------
    E------------------------------------------------------

    mas da uma conferida ae .. pq eu tirei meio q na pressa.

    gunsnzeppelins
    Veterano
    # fev/04
    · votar


    GrungeMan vc fica aí passando tab errada para os outros... o negócio é mais ou menos assim:

    e--24-24-25-1h27-23p4--------------------------
    B---------------------9-----------------------16
    G-----------------------0------------------14--
    D-------------------------22b29r25------13-----
    A------------------------------------12--------
    E1--------------------------------12-----------


    gunsnzeppelins
    Veterano
    # fev/04
    · votar


    GrungeMan fica aí pagando pau pra esse Metal Defender... quero ver ele tocar melhor que o Chitãozinho... aquele cara é o bicho... (bicho-papão)

    GrungeMan
    Veterano
    # fev/04
    · votar


    hauahuaha....

    Sr_ninguem
    Veterano
    # fev/04
    · votar


    Cara, não é complicado não. Um dia eu tirei meio sem querer, mas tô sem a guitarra aqui agora. Outro dia eu posto...

    neopaganini
    Veterano
    # fev/04
    · votar


    loka essas tabs ..pena q nem o dalsim consegue tokar

      Enviar sua resposta para este assunto
              Tablatura   
      Responder tópico na versão original
       

      Tópicos relacionados a Como se faz esse riff?