Pentablues

    Autor Mensagem
    Chicao
    Veterano
    # jan/03


    Eu ja uso a pentatonica e tal e gosto muito mesmo. só que eu fui em um site que tinha a pentablues. eram varios desenhos mais nao parei pra ver direito pq tava mto confuso.existe a pentablues ou é só denominada assim porque é a pentatonica muito usada no blues? se existir mesmo a pentablues e alguem me puder passar (por site) a escala correta eu agradecia porque no site que eu fui tava muito confuso!brigadao deis de djá! =)
    Abraços do Chicão! =) =) =)

    nukebass
    Veterano
    # jan/03
    · votar


    A pentablues que vc tá falando, é a pentatônica menor(T,3b,4J,5J,7) + a "Blue Note" que é a quarta aumentada(4#)...
    Fica assim: (T,3b,4J,4#,5J,7)

    Abraços!!!

    Chicao
    Veterano
    # jan/03
    · votar


    vixxx.descurpa a ignorancia ae nukebass, mais num dava pra vc passa isso pra tablatura naum? ou explica melhor isso.ehehe
    foi mal a ignorancia ae mesmo.

    nukebass
    Veterano
    # jan/03
    · votar


    Exemplo de Pentablues em Mi: E,G,A,A#,B,D

    Daí é só transpor pra outras tonalidades...

    Bons estudos!!! Qualquer dúvida manda!!!

    joao balao
    Veterano
    # jan/03
    · votar


    ae Chicao pentablues em Em


    |--------------------------------12-15-|
    
    |---------------------------12-15------|
    |-------------------12-14-15-----------|
    |--------------12-14-------------------|
    |------12-13-14------------------------|
    |-12-15--------------------------------|


    Chicao
    Veterano
    # jan/03
    · votar


    só tem esse desenho joao balao?
    valeu pelas ajudas ae nukebass e joao balao!!!desculpa encher tanto

    joao balao
    Veterano
    # jan/03
    · votar


    não esse é só um dos 5 desenhos...
    se vc souber os 5 desenhos da pentatônica, é só adicionar a 5b.
    se não souber, são esses aí, o tom eh Gm:

    |----------------3-6|
    
    |-------------3-6---|
    |----------3-5------|
    |-------3-5---------|
    |----3-5------------|
    |-3-6---------------|

    |----------------6-8|
    |-------------6-8---|
    |----------5-7------|
    |-------5-8---------|
    |----5-8------------|
    |-6-8---------------|

    |---------------------8-10|
    |-----------------8-11----|
    |-------------7-10--------|
    |---------8-10------------|
    |-----8-10----------------|
    |-8-10--------------------|

    |--------------------------10-13|
    |---------------------11-13-----|
    |----------------10-12----------|
    |-----------10-12---------------|
    |------10-13--------------------|
    |-10-13-------------------------|

    |--------------------------13-15|
    |---------------------13-15-----|
    |----------------12-15----------|
    |-----------12-15---------------|
    |------13-15--------------------|
    |-13-15-------------------------|


    nesse caso é só a pentatônica, como eu disse é só adicionar a 5b que vira pentablues

    Chicao
    Veterano
    # jan/03
    · votar


    valeu mesmo. os 5 desenhos eu ja sei e tal. só tenho mais uma duvidazinha.......na hora de improvizar eu encaixo o desenho onde? como adapto pra usar ele em uma improvizaçao?se for encher mto o saco pode desistir de mim.=)

    SepulMala
    Veterano
    # jan/03
    · votar


    Ei João Balão em q tonalidade tão esses desenhos aí?

    Chicao
    Veterano
    # jan/03
    · votar


    ele ja falou q tao em Gm! =)
    ei joao balao:
    valeu mesmo. os 5 desenhos eu ja sei e tal. só tenho mais uma duvidazinha.......na hora de improvizar eu encaixo o desenho onde? como adapto pra usar ele em uma improvizaçao?se for encher mto o saco pode desistir de mim.=)

    SepulMala
    Veterano
    # jan/03
    · votar


    Êh Chicão te acalma, eu não tinha visto!!
    Foi mal véio!!

    Chicao
    Veterano
    # jan/03
    · votar


    ei SepulMala!!!!
    eu nao falei em tom agressivo.ehehee
    tou calminho. só keria avisar. desculpa se pareceu agressivo. nao mesmo. nao entenda como ofensa por favor. só avisei q era em Gm e disse q ele ja tinha comentado. ehehe
    agora quem diz "Foi mal véio" sou eu!
    eheehe
    =)

    joao balao
    Veterano
    # jan/03
    · votar


    Chicao, não tem uma regra na hora de improvisar...
    vc tem que dar as notas desses desnhos usanso os recursos tipo bends, vibratos, ligados, slides, aplicar alguns licks...
    e entrar no ritmo da música, o que é muito importante, mas muita gente não tem essa noção. muitas vezes é melhor dar 3 notas bem dadas so que sair fazendo todos os desenhos super rápidos.

    Chicao
    Veterano
    # jan/03
    · votar


    brigadao aí joao balao. vou tentar isso aí! =)

    Energy
    Veterano
    # fev/03
    · votar


    existe penta blues maior????

      Enviar sua resposta para este assunto
              Tablatura   
      Responder tópico na versão original
       

      Tópicos relacionados a Pentablues