[Exercícios para iniciantes] Solando eletrônicas na guitarra.

    Autor Mensagem
    Ismah
    Veterano
    # fev/15 · Editado por: Ismah


    Galera faz tempo que estou com esse projeto em mente, básicamente, quero cruzar a simplicidade da música eletrônica, principalmente do eurodance, ítalodance, Italiandisco etc. A ideia é trazer um solo com diversas formas de tocar, dividido em o que chamo de Levels - como num GuitarHero/RockSmith, e ele vai complicando conforme sobe o level.

    Pra começar posto o solo de La danza delle Streghe (ou simplesmente La Danza)...

    É um solo simples, com notas marcando o tempo, e ao mesmo tempo complexo, pois é bem pensado. De quebra, no arranjo abaixo dá pra conhecer bem o braço do instrumento.



    Level 1


    e|--------5-|--6-6-8-6-|--5-5-6-5-|----------|--------5-|--6~--6---|-- --------|-----------|
    B|------8---|----------|----------|--8-8-----|------8---|--------8-|-- 6-8-6-8-|--6-6------|
    G|--7-7-----|----------|----------|------7-7-|--7-7-----|----------|-- --------|------7~~\-|

    G|---------------|--------------|--12-13-12-10-|--10----------|-----10 -12-14-|
    D|--/12-13-12-10-|--10----------|--------------|-----13-12-13-|--13--- -------|
    A|---------------|-----13-12-13-|--------------|--------------|------- -------|


    B|--13-11-10-11-|--10-10-11-10-|-------------||
    G|--------------|--------------|--12~~~~~*---|| *Pode usar alavanca a vontade.



    (Escrevendo level II depois da janta)

    SkyHawk
    Membro
    # fev/15
    · votar


    Ismah
    Eu não sei nada de música eletrônica mas gostei bastante, só não encontrei a guitarra !!!! Kkkkkkkkkkkkkkkkkkkkk, por acaso era o teclado que ouvi tocando essa tablatura ???? Rsssssssss

    Ismah
    Veterano
    # fev/15
    · votar


    SkyHawk

    É a música a original. O solo é de teclado, mas estou tranferindo para a guitarra. Que aliás pede um delay junto ao drive hi pra mid gain.

    Ismah
    Veterano
    # fev/15 · Editado por: Ismah
    · votar


    Level 2 - Slide, hammer-on, pull off e harmônicos naturais.


    HN
    e|---------5-|--5h6-6-8p6p|--5-5h6p5-|----------|---------5-|--6~--6-- -|----------|-------------|
    B|-------8---|------------|----------|--8-8-----|-------8---|--------8 -|-p6-8p6-8-|--6-6--------|
    G|--/7-7-----|------------|----------|------7-7-|--/7-7-----|--------- -|----------|------6/7~~\-|

    G|---------------|--------------|--12/13-12/10-|--10----------|-----10 h12/14-|
    D|--/12h13p12-10-|--10----------|--------------|-----13-12/13-|--13--- -------|
    A|---------------|-----13-12/13-|--------------|--------------|------- -------|

    HN
    e|--------------|-----------------|-------------||
    B|--13-11-10/11-|--10-10-10/11-10-|--12~~~~~*---||
    G|--------------|-----------------|--12~~~~~*---|| *Pode usar alavanca a vontade.


    Ismah
    Veterano
    # fev/15 · Editado por: Ismah
    · votar


    Level 3


    Ring----------| HH Ring---| Ring--------| HH
    e|---------5-|--5h6-6-8p6p|--5-5h6p5-|----------|---------5-|--6~--6-- -|----------|-------------|
    B|-------8---|------------|----------|--8-8-----|-------8---|--------8 -|-p6-8p6-8-|--6-6--------|
    G|--/7-7-----|------------|----------|------7-7-|--/7-7-----|--------- -|----------|------6/7v^v^-|


    G|---------------|---------------|--t12/13-12/10-|--10----------|----- -10h12/14-|
    D|--/12h13p12-10-|--10-----------|---------------|-----13-12/13-|--13- ---------|
    A|---------------|-----h13p12/13-|---------------|--------------|----- ---------|


    e|--------------|-----------------------|-------------||
    B|--13-11-10/11-|--pb10-pb10-pb10/11-10-|--t12~~~~~\*-||
    G|--------------|-----------------------|--t12~~~~~\*-|| *Pode usar alavanca a vontade.


      Enviar sua resposta para este assunto
              Tablatura   
      Responder tópico na versão original
       

      Tópicos relacionados a [Exercícios para iniciantes] Solando eletrônicas na guitarra.