Exercicios de aquecimento

    Autor Mensagem
    carlosvh
    Veterano
    # jan/04


    Ae galera blz?
    gostaria de saber qual exercicio para aquecer vcs mais utilizam antes
    de tocar em algum show com a banda de vcs.
    alem daqueles tradicionais 1234 qual exercicio ou ate musica vcs preferem ?

    abraço

    nothing else matters
    Veterano
    # jan/04
    · votar


    NOTHING ELSE MATTERS....U SOLO DO FINAL.....GANHA MUITU AGILIDADE PRA INICIANTE.....como fade to black ajuda.....one......wasting love....knock on a heaven s door...ah bixu...saum muitas

    Bug
    Veterano
    # jan/04
    · votar


    Tem este que eu faço em várias posições do braço.
    É pra mão direita. Peguei numa video aula do Petrucci.

    Espero ter ajudado.
    []s


    e-----------------------5--9-----------------------------
    B-----------------5--------------5-----------------------
    G-----------6--------6--------6--------6-------------------
    D-----7--------7--------------------7--------7-------------
    A--------7--------------------------------7--------------
    E--5--------------------------------------------5--------


    GuitarHouse
    Veterano
    # jan/04
    · votar


    carlosvh
    Para aquecer?
    Em primeiro lugar, faça coisas lentamente e aumente de forma profgressiva a velocidade(se quiser aquecer assim ne)

    Dai acho q nao deva fazer exercicios pre-definidos. Toque o que vier na cabeça e seja espontaneo, afinal eh apenas aquecimento. passe horizontamente e verticalmente pelo braço, no maior numero de cordas que puder, preferencia as 6 neh...dai vc estara aquecendo "sem compromisso"...prefiro assim

    Energy
    Veterano
    # jan/04 · Editado por: Energy
    · votar


    carlosvh
    faça 1234 e 4321
    depois se faiz
    <pre>
    e-------4-----------4-----------------1-4------
    B-----3---3-------3---3-------------2----3----
    G---2-------2---2-------2---etc---3-------2---
    D-1-----------1-----------1-----4----------1-etc
    A---------------------------------------------
    E---------------------------------------------
    </pre>
    depois faiz escalas

    tem fragmentos



    e------------------------------------------------------
    B------------------------------------------------------
    G---2-4-5-4--etc--4-5-7-5--etc----------------------------
    D------------------------------------------------------
    A------------------------------------------------------
    E------------------------------------------------------

    etc

    Jimmy Hammer
    Veterano
    # jan/04
    · votar


    meu professor me disse q para aquecer bem vc precisa fazer no minimo uns 40min de ligados..

    vai descendo e subindo as escalas.. trocando cordas etc

    FeeL Vai
    Veterano
    # jan/04
    · votar



    e---------------------------
    B---10-13-12-13-10-13-12-13-
    G---------------------------
    D---------------------------
    A---------------------------
    E---------------------------


    e----------------------
    B-8-12-10-12-8-12-10-12
    G----------------------
    D----------------------
    A----------------------
    E----------------------

    e----------------------
    B-6-10-8-10-6-10-8-10--
    G----------------------
    D----------------------
    A----------------------
    E----------------------

    e----------------
    B-5-8-6-8-5-8-6-8
    G----------------
    D----------------
    A----------------
    E----------------

    e----------------
    B-3-6-5-6-3-6-5-6
    G----------------
    D----------------
    A----------------
    E----------------

    e--------------------------------------
    B-1-5-3-5-1-5-3-5--1-3-5-3-5-1-3-5-3-5-
    G--------------------------------------
    D--------------------------------------
    A--------------------------------------
    E--------------------------------------


    esse exercicio é ótimo pra aquece, e pra fortalecer os dedos ... faco ele durante 20 minutos q seu dedo já vai ta encadecente

    carlosvh
    Veterano
    # jan/04
    · votar


    Ae galera valeu pelas dicas

    abraço e boa sorte!

      Enviar sua resposta para este assunto
              Tablatura   
      Responder tópico na versão original
       

      Tópicos relacionados a Exercicios de aquecimento