o que é powerchord ??

    Autor Mensagem
    jofreeu
    Veterano
    # dez/03


    o que é issu? ou o que significa ou como usar??

    conte
    Veterano
    # dez/03
    · votar


    eh tipo um "acorde distorcivo"... eh a tonica ,quinta e oitava.. um ex:


    A | G
    e------------------------------------------------------
    B------------------------------------------------------
    G------------------------------------------------------
    D--7---------5-------------------------------------------
    A--7---------5-------------------------------------------
    E--5---------3-------------------------------------------


    Dave Murray
    Veterano
    # dez/03
    · votar


    sao acordes formados pela tonic e pela 5 (tbm pode usar a 8)

    ex:

    DO

    -----
    -----
    -----
    -5---
    -3---
    -----


    Igor Farias
    Veterano
    # dez/03
    · votar


    E o acorde com 5 tipo A5, são os acordes usodos no rock

    e------------------------------------------------------
    B------------------------------------------------------
    G------------------------------------------------------
    D-----7-------------------------------------------------
    A-----7-------------------------------------------------
    E-----5-------------------------------------------------


    jofreeu
    Veterano
    # dez/03
    · votar


    valeu ae pessoal gente boa!!!!!!!!!!

    Dave Murray
    Veterano
    # dez/03
    · votar


    qualqueh coisa dah um toke

    Vic Wolk
    Veterano
    # dez/03
    · votar


    http://www.cifraclub.com.br/forum/index.php?action=vthread&forum=4&t opic=21400

    Vic Wolk
    Veterano
    # dez/03
    · votar


    http://www.cifraclub.com.br/forum/index.php?action=vthread&forum=4&t opic=21400


    ops... usem o FAQ no musica em geral.

    SuperGeo
    Veterano
    # dez/03
    · votar


    ow tipo

    775 eh powerchord?

    pq eu vi numas tab ae e eh dificil toca

    conte
    Veterano
    # dez/03
    · votar


    eh powerchord e nem eh dificil de toca

    The Hellraiser
    Veterano
    # dez/03
    · votar


    Nossa, powercord é a coisa mais fácil que tem de fazer... Essas bandinhas de punk-rock só usam power cords...

    Reinaldo Camargo Filho
    Veterano
    # dez/03
    · votar


    É verdade.

    Tem bandas boas que usam powerchords, mas tem um solo dahora por trás de tudo. (SEM MALíCIA :P )

      Enviar sua resposta para este assunto
              Tablatura   
      Responder tópico na versão original
       

      Tópicos relacionados a o que é powerchord ??